Tag: howard

She Treats Me Well Tabs – Ben Howard

 -----------------------------------------------------------------
                She Treats Me Well - Ben Howard
-----------------------------------------------------------------

 : Aeonoptic
 aeonoptic

****Tuning: CGBbGFBb******

Capo 5 except 6th string (sounds as CCEbCBbEb, open Cm7; tab is relative to capo for all covered strings)
x= thumb slap

Intro/verses:
Bb|------0-0----0-----|-------------------|--0----0--|------0-----0----|---------------0|
F |------0----0---0---|--------2-2--------|-5-h7--7p5|------------0----|----------------|
G |---2--2----2---2---|------0-0-0-2p0----|3---------|---2--------2----|--------0----0--|
Bb|------0----0-------|----0--------------|----------|------------0----|----0h7---------|
G |-------------------|----------------0--|----------|-----------------|----------------|
C |10---------------10|7h8-----0---------0|----------|10-------10----10|7h8-------0-----|

Bb|---------------|-------0------0----|--------------0----|--0---0-0------|
F |---------------|--------------0----|----------0--------|-5-h7-7-7p5----|
G |---------------|---2----------2----|------0-----0---0--|3--------------|
Bb|--4p2-----2p0--|--------------0----|----0--------------|---------------|
G |---------------|----------0h3------|-------------------|---------------|
C |0-----x-0-----x|10---x----------x-0|7h8----0----------x|------------x-0|

Bb |------0---------7--|----------0-0-------|
F |----------------0--|----------2---2--5p2|
G |---2----2----2-----|------0---0---------|
Bb|-------------------|----0-----0---------|
G |-------------------|--------------------|
C |10--------10------x|7h8-----0-----------|

Basically the same under the verses with some variation in picking

Chorus:
Bb|--------|---------|--------|---------7-5-4|---------7-5-4|--------|---------|------|---+7-|
F |--------|---------|--------|--------------|--------------|--------|---------|---0h2|---+7-|
G |--------|---------|--------|--------------|--------------|--------|---------|---0--|---+7-|
Bb|10-9----|---------|10-9----|--------------|--------------|10-9----|---------|------|---+7-|
G |--------|---------|--------|--------------|--------------|--------|---------|------|------|
C |5--5-3-x|0-x-10-x-|5--5-3-x|0-x-10-x------|0-x-10-x------|5--5-3-x|0-x-10-x-|0-----|0-----|
 
There's a second guitar arpeggiating under the chorus, if you want to emulate it
simply arpeggiate the capoed strings

Next verses are again variations of the above, and chorus is identical

Outro:
Bb|--+7----7br9-------|---+7----7br9-----|--+7----7br9-------|--+7-----------|
F |-----+7------7br8p5|------+7------7br8|-----+7------7br8p5|-----+7-8p7-5-5|
G |-------------------|------------------|-------------------|---------------|
Bb|-------------------|------------------|-------------------|---------------|
G |-------------------|------------------|-------------------|---------------|
C |0------------------|0-----------------|0------------------|0--------------|

Bb|-----------------5-5|----------------5--|-----------------5-5|------------------5|
F |-----------------0-0|----------------0-0|-----------------0-0|------------------0|
G |-----------------0-0|----------------0--|-----------------0-0|------------------0|
Bb|----7---4-----2--0-0|----7---4-----2-0--|----7---4-----2--0-0|----7---4---4p2p0--|
G |--7---5-----3-------|--7---5-----3------|--7---5-----3-------|--7---5------------| x2
C |0---------x---------|0---------x--------|0---------x---------|0---------0--------|

The remainder of the outro is essentially just this with harmonics instead of
the descending plucked bit, which I can't quite work out,
but I believe it's on the 7th and 5th fret

| /  slide up
| \  slide down
| h  hammer-on
| p  pull-off
| ~  vibrato
| +  harmonic
| x  Mute note

Shut Me Down Tabs – Rowland S Howard

 Shut Me Down
By Rowland S Howard

Transcribed from the live version at All Tomorrow’s
Parties: 

Watch to get strumming pattern.

Verse
  C/G           Em
|-------0-------0---------------------(0)-(0)----------|
|-1-(1)-1-------0---------------------(0)-(0)----------|
|-0-(0)-0-------0---------------------(0)-(0)----------|
|-2-(2)-2-------2---------------------(2)-(2)----------|
|-3-(3)-3---3---2---------------------(2)-(2)----------|
|-3-(3)-3-3---3-0-(0)-(0)-(0)-(0)-(0)-(0)-(0)----------|
  d  u  d       d                      d   u


  C/G           Em
|-------0-------0---------------------(0)-(0)----------|
|-1-(1)-1-------0---------------------(0)-(0)----------|
|-0-(0)-0-------0---------------------(0)-(0)----------|
|-2-(2)-2---2---2---------------------(2)-(2)----------|
|-3-(3)-3-----3-2---------------------(2)-(2)----------|
|-3-(3)-3-3-----0-(0)-(0)-(0)-(0)-(0)-(0)-(0)----------|
  d  u  d       d                      d   u

Bridge
  C/G           Em
|-------0-------0---------------------(0)-(0)----------|
|-1-(1)-1-------0---------------------(0)-(0)----------|
|-0-(0)-0-------0---------------------(0)-(0)----------|
|-2-(2)-2-------2---------------------(2)-(2)----------|
|-3-(3)-3---3---2---------------------(2)-(2)----------|
|-3-(3)-3-3---3-0-(0)-(0)-(0)-(0)-(0)-(0)-(0)----------|
  d  u  d       d                      d   u

  C/G           
|-------0----------------------------------------------|
|-1-(1)-1----------------------------------------------|
|-0-(0)-0----------------------------------------------|
|-2-(2)-2---2------------------------------------------|
|-3-(3)-3-----3----------------------------------------|
|-3-(3)-3-3--------------------------------------------|
  d  u  d     

Chorus: Part 1
  F
|-1-1-1-1-1-1-1-1-1-1----------------------------------|
|-1-1-1-1-1-1-1-1-1-1----------------------------------|
|-2-2-2-2-2-2-2-2-2-2----------------------------------|
|-3-3-3-3-3-3-3-3-3-3----------------------------------|
|-3-3-3-3-3-3-3-3-3-3----------------------------------|
|-1-1-1-1-1-1-1-1-1-1----------------------------------|
  d d d u d u d d d u

Chorus: Part 2
  G
|-3-3-3-3-3-3-3-3-3-3----------------------------------|
|-3-3-3-3-3-3-3-3-3-3----------------------------------|
|-0-0-0-0-0-0-0-0-0-0----------------------------------|
|-0-0-0-0-0-0-0-0-0-0----------------------------------|
|-2-2-2-2-2-2-2-2-2-2----------------------------------|
|-3-3-3-3-3-3-3-3-3-3----------------------------------|
  d d d u d u d d d u

  G               F
|-3-3-3-3---------1-1-----1-1-1-------1-1-1------------|
|-3-3-3-3---------1---1---1-1---1-----1-1-1------------|
|-0-0-0-0---------2-----2-2-2-----2---2-2-2------------|
|-0-0-0-0-0-------3-------3-3-------3-3-3-3------------|
|-2-2-2-2---3-2-0-3-------3-3---------3-3-3------------|
|-3-3-3-3---------1-------1-1---------1-1-1------------|
  d d d u         d       d d         d d u

  G           F       Fma7(#11)/E
|-3---------3-1-1-1-1-0-0------------------------------|
|-3---------3-1-1-1-1-0-0------------------------------|
|-0---------0-2-2-2-2-2-2------------------------------|
|-0-0-------0-3-3-3-3-3-3------------------------------|
|-2---3-2-3-2-3-3-3-3-3-3------------------------------|
|-3---------3-1-1-1-1-0-0------------------------------|
 d          d d u d u d u

Chorus: Part 3
  C/G
|-x-0-x-x-x-x-x-0-x-x----------------------------------|
|-1-1-1-1-1-1-1-1-1-1----------------------------------|
|-0-0-0-0-0-0-0-0-0-0----------------------------------|
|-2-2-2-2-2-2-2-2-2-2----------------------------------|
|-3-3-3-3-3-3-3-3-3-3----------------------------------|
|-3-3-3-3-3-3-3-3-3-3----------------------------------|
  d d d u d u d d d u 

Song Structure:
Verse          (X4)
Bridge         (X1)
Chorus: Part 1 (X2)
Chorus: Part 2 (X1)
Chorus: Part 3 (X2)
Chorus: Part 1 (X2)
Chorus: Part 3 (X2)
Chorus: Part 1 (X2)
Verse          (X4)
Bridge         (X1)
Chorus: Part 1 (X2)
Chorus: Part 2 (X1)
Cho

Youre So Beautiful chords – Terrance Howard

 You're So Beautiful
[Empire Cast]


[Verse 1]

 Am Fmaj 
Sometimes you feel insecure
                 C E7 
Trust me girl I understand
 Am Fmaj 
But even with no manicure
                 C E7 
Baby girl I'll hold your hand
 Am 
You look so good when you walking by
 Fmaj C 
Sexy comes in every size keep wearing that
 E7 
You ain't playing
 Am Fmaj 
You got yourself a new man no need no workout plan
             C 
I call that baby fat
 E7 
But it sure look good to me, see...

[Hook]
 Am Fmaj C G 
You're so beautiful
 E7 
(You got me watching you
Like a camera do)
 Am Fmaj C G 
I still wait for you
You got me (In all kind of always) x2


[Verse 2]
 Am Fmaj 
You wear your glasses you can't see
                  C E7 
Girl I love your crooked smile
 Am Fmaj 
Hair ain't done you're makeup free
                 C 
You'll never go out of style
 E7 
Cause you ain't got time to pack
 Am 
You look too good to be mad
 Fmaj C    
Got way too much class all up inside
Them jeans
 E7 
You should be happy with a nappy
 Am 
Hot damn have you seen them thighs
 Fmaj 
You been all up inside
 C 
The cornbread and collard greens
          E7 
You call me papi
And I like it wild

[Hook]

[Bridge]
 Am C 
This the kind of song make a woman love a man
 G 
A woman love a man
 D 
A woman love a man now
 Am C 
This the kind of song make a woman love a man
 G 
A woman love a man
 D 
Adam and Eve and Clan

 Am Fmaj 
This the kind of song make a woman love a man
 C 
A woman love a man
 E7 
A woman love a man this this
 Am Fmaj 
This the kind of song make a woman love a man
 C 
A woman love a man
 E7 
Adam and Eve and Clan

 Am Fmaj G C

Evergreen chords – Ben Howard

 [CAPO 3RD]

 Am Em G F 
Christmas flared amongst the somewhere cold deep evergreen
 Am Em G F 
Built a world without your love and I built it in me
 Am Em G F 
Christmas flared amongst the somewhere cold deep evergreen
 Am Em G D 
Built a world without your love, now I'm all out at sea

 C G G/F# C 
Take me back to the catacombs, I am tempted by her love
 C G G/F# C 
Bluest eyes against my own skin, I have never been so caught up
 C G G/F# C 
Looking around I see memories, what it was, oh, what it was
 C G G/F# C 
There in the crowds you said something but I can't remember what

 C     
And my mother cursed the town for 
 Am Em G F 
Closing me down
 Am Em G F 
Closing me down

Interlude:  Am Em G D C G G/F# C 
Take me back to the catacombs, I am tempted by her love
 C G G/F# C 
Bluest eyes against my own skin, I have never been so caught up
 C G G/F# C 
Looking around I see memories, what it was, oh, what it was
 C G G/F# C 
There in the lights you said something but I can't remember what

And my mother cursed the town for 

 Am Em G F 
Closing me down
 Am Em G F         
Closing me down

Closing: Am

Small Things Live Tabs – Ben Howard

 -------------------------------------------------------------------------------
                             SMALL THINGs - Ben Howard
-------------------------------------------------------------------------------
: Montana


Tuning:CGA#A#FC

 Intro/Verse:
e|---------------------------------+12-----------------------------------+7------|
B|-------b7--5--0---0h2------------+12---------b7--5--0--0h2-------------+7------|
G|--------------------------------(+12)---------------------------------(+7)-----|
D|-------------------------------------------------------------------------------|
A|-----------------------------9-----------------------------------7--6----------|
E|---7--------------3-------10---9---------7-------------3------8----------------| (x6)

   Chorus
    note: the fourth time through he just ends on 7th fret and pauses before second vets
e|--------------------------------------------|
B|----------------0-----0-----0--- --0--------|
G|------0----0--------------------------------|
D|--------------------------------------------|
A|--------------------------------------------|
E|---7-----7----10---10----9-----9---------7--| (x4)

 2nd Verse:
e|---------------------------------+12-----------------------------------+7------|
B|-------b7--5--0---0h2------------+12---------b7--5--0--0h2-------------+7------|
G|--------------------------------(+12)---------------------------------(+7)-----|
D|-------------------------------------------------------------------------------|
A|-----------------------------9-----------------------------------7--6----------|
E|---7--------------3-------10---9---------7-------------3------8----------------| (x4)

 (Chorus)
    song starts to speed up here
    pinky finger laying across the 12th and 19th frets lightly to create harmonic sound
note: my X's mean slap ..because i don't know how else to tab that..oops..sorry if its confusing

   has the world                                gone mad
  all          these                small things                they gather round       they gather
e|---------------X-----12----X--------------X-----12----X-------------X-----19----X------------X--|
B|---------------X-------12--X--------------X--------12-X-------------X-------19--X------------X--|
G|-----------12--X-----------X----------12--X-----------X---------19--X-----------X---------19-X--|
D|--------12-----X-----------X--------12----X-----------X-------19----X-----------X-------19---X--|
A|---12-12-------X--12-------X---12-12------X--12-------X--14-14------X--14-------X--14-14-----X--|
E|---------------X-----------X--------------X-----------X-------------X-----------X------------X--|
   or is it me
   round          me
e|-----19-----X-------------X-----19-----X-------------X-----19-----X-|
B|--------19--X-------------X--------19--X-------------X--------19--X-|
G|------------X----------19-X------------X---------19--X------------X-|
D|------------X--------19---x------------X-------19----X------------X-|
A|--14--------X--13-13------X--13--------X--13-13------X--13--------X-|
E|------------X-------------X------------X-------------X------------X-|  (x4)

    quick transition:
e|------17---14---12-------------|
B|-------------------------------|
G|-------------------------------|
D|-------------------------------|
A|---13----13---13---------------|
E|-------------------------------|
   and i can't see my love
e|---------X--------------X---------X-----------X--------------X--------------------|
B|---------X--------------X---------X-----------X--------------X--------------------|
G|---------X--------------X---------X-----------X--------------X--------------------|
D|------12-X-12-------12--X------12-X-12-----12-X--12-------12-X-12--------12-------|
A|---------X--------------X---------X-----------X--------------X--------------------|
E|--7-7----X------7-7-----X---7-7---X-----7-7---X------10-10---X-------10-10--------|

e|----------X-------------X------------X------------X-----------X---

Me And My Friend Time chords – Ben Howard

 Pretty sure this is correct, any corrections say below. Very old Ben Howard song. Listen for timings- 


Intro- Am-F-G

Verse-

Wandering why,wondering why you came, into my life 
  Am F G 

Wondering why, wondering why you braved the rain, just to see my eyes 

  Am F G 

~~~~

Pre chorus chord- F 


Oh but you'll be gone just as soon, as the water rises
   C Am F 

and ill stay sleeping cos i know, when i wake there's only silence 
  C Am F  

~~~~~

Evergreen Tabs – Ben Howard

 tuning-
C
F
A#
F
F
c

intro+ verse
Final chord (9,7) is strummed. Listen to it for timings.

C|--0-----------------------7-------10------9---|
F|----10--9--12--10--9--0-----5h7--9-------7----|
A#|---------------------------------------------|
F|----10--9--12--10--9--0-----------------------|
F|-------------------------------------12-------|
C|----------------------------------------------|

chorus (strummed)

C|--3--10--9--10----|
F|-----9---7--9-----|
A#|-----------------|
F|------------------|
F|--2---------------|
C|------------------|

Concerning Hobbits Tabs by Howard Shore V10

 Concerning Hobbit theme from the Hobbit

I Hope you will enjoy my version =)

e|------------------------------------|-------------------------------|
B|----------------------3-2-----------|-------------------------------|
G|-------2----------2-4-----2---------|-------2----------2-4-2--------|
D|-0-2-4---4-2-0--4-----------4-5-4-2-|-0-2-4---4-2-0--4-------4-2-0--|
A|------------------------------------|-------------------------------|
E|------------------------------------|-------------------------------|

e|-----2-2-2-2-5----------------------------2-2-5-2-----------------2-|
B|-3-5----------5-3-5-----2-2-2-3-------3-5---------5-3-5-2-3-2---2-3-|
G|--------------------2-4-----------0-2-------------------------4---2-|
D|--------------------------------4---------------------------------0-|
A|--------------------------------------------------------------------|
E|--------------------------------------------------------------------|

Tears Will Fall chords – Ricky Dean Howard

 Ricky Dean Howard - Tears Will Fall
Capo 1

Verse 1
 Dm 
There's nothing to say
                              F 
Cause you've heard it all before
 Dm 
But you're on you way
                          F 
To happiness beyond that door
 Dm 
So keep your head held high
                       Bbsus2 
And never lose your heart

Prechorus
 Dm 
Keep that sparkle in your eyes
                  Gm Bb 
And never lose your smile

Chorus
 Dm 
Cause tears will fall
            Bb 
And they'll hit the ground
         F 
And will make no sound
                C 
As they wash away with you
 Dm Bb 
Smiles fade and they turn to dust
         F 
And your beating heart seems to
          C 
Beat no more for me

Verse 2
There's nothing to see
Cause you've seen it all before
But what will be will be
But you just can't take no more

Pre Chorus
Chorus

Interlude  Bb F Dm C Bb F C 
It beats no more for me
                 Bb F Dm C 
It beats no more
                        Bb F C 
It beats no more for me


Chorus


1x  Dm 
Cause tears will fall
         1x  Bb 
And they'll hit the ground
     1x  F 
And your beating heart seems to
      1x  C 
Beat no more for me

Lost In Time chords – Howard Moss

 Lost In Time - Howard Moss (KEEP YOUR ENEMIES CLOSE) 2014

 Am ,  F ,  D ,  E7  x4
( Am ) Drifting onwards, ( F ) sinking downwards I ( D ) know
We ( E7 ) all get lost in time 
( Am ) Feelings fading, ( F ) mind is so ( D ) strong
Little ( E7 ) do they know

( Am ) Looking frail, ( F ) the mind hasn't changed 
They ( E7 ) look at me a way
( Am ) That I'm nothing, ( F ) but one in a line
We ( E7 ) all end up the same

 F ,  G ,  Am ,  E7  x2
( F ) It's just a ( G ) part of life for ( Am ) sure 
Now there's ( E7 ) nothing we can do
( F ) It's all been ( G ) written in the ( Am ) stars 
Right ( E7 ) from the start of time

( Am ) I've been like this ( F ) for a nearly a ( D ) year
In ( E7 ) a dream like state
( Am ) Feeling distant, ( F ) and fading to ( D ) fast
Got ( E7 ) going anywhere

( Am ) Space goes onwards, ( F ) and never will ( D ) end
Our ( E7 ) minds can't comprehend
( Am ) What's the meaning, ( F ) we never will ( D ) know
We're ( E7 ) better off that way

( F ) Yet they'll ( G ) try to work it ( Am ) out 
Well that's ( E7 ) just a waste of time
( F ) That's the ( G ) one thing we don't ( Am ) have 
That's ( E7 )what we agree upon

Solo or middle 8 in C, G, Am, F
 C ,  G ,  Am ,  F ,  E7 

( Am ) Sinking quickly, ( F ) and drowning so ( D ) fast
I ( E7 ) cannot feel to breath
( Am ) Visions blurring ( F ) and badly in ( D ) need
I ( E7 ) want to call your name

( F ) The clock is ( G ) ticking now so ( Am ) fast, 
Speeding ( E7 ) up as days go by
( F ) Night is ( G ) tricking with my ( Am ) head, 
There's ( E7 ) no need to question why

( F ) We're only ( G ) here for a short ( Am ) while 
And now ( E7 ) once your gone your gone
( F ) You can ( G ) never turn back ( Am ) time 
So just ( E7 ) dance until the dawn

OUTRO  AM ,  F ,  G ,  E7

Thrice Welcome – Laketown Tabs by Howard Shore

 So here's a tab that I've done (my first) that I had to listen to try and roughly get. 
Simple tab to do and it's fun to play along with.

E -----------------------------------------|
B -----------------------------------------|
G -----------------------------------------|
D --000-----777----555---333h2-------------|
A -----------------------------------------|
E -----------------------------------------|

E -----------------------------------------|
B -----------------------------------------|
G -----------------------------------------|
D --000-----777----55h2--------------------|
A -----------------------------------------|
E -----------------------------------------|

E -----------------------------------------|
B -----------------------------------------|
G -----------------------------------------|
D --000-----777----555---333h2-------------|
A -----------------------------------------|
E -----------------------------------------|

E -----------------------------------------|
B -----------------------------------------|
G -----------------------------------------|
D --000----3-5-7-7-------------------------|
A -----------------------------------------|
E -----------------------------------------|


Super easy, and although it can be improved into 2-3 strings up, it sounds similar.

Untouchable chords – Nick Howard

 Nick Howard "Untouchable"               

CAPO: 4. Bund 

INTRO:   Em G Em G 


1. VERSE
         Em 
in the house on a street
         G 
in the grey of the city
         D 
we were young we were brave
         C 
we surived on a feeling

         Em 
to give what we want
         G 
we would take what we needed
         D C 
and nobody can tell as no

         Em G Em G 
hey                     hey
        


2. VERSE
         Em 
in the soul of our heart
         G 
there's a place that is beating
         D 
that's loud like a drum
         C 
that is still undefeated

         Em 
we live on a dream
         G 
of the things we believe in
         D C 
we're made of blood and steel and stone


CHORUS
                  Em G 
and no on's gone break us down 
         D C 
we're untouchable
                 Em G 
no one's gone hurt us now
         D C 
we're untouchable

     Em G 
we fall and we crawl and we walk and we run
         D C 
till we learn how to fly again
            Em G 
so everybody scream out loud
         D C 
we're untouchable – untouchable
 Em G Em G 
           hey

3. VERSE
         Em 
let's go back to a place
         G 
where our hearts were wide open
         D 
where innocence rules
         C 
and hope is unbroken

         Em 
say everything what we need 
         G 
without joking
         D 
cause now is time 
           C 
to let it out


CHORUS


BRIDGE:
 Em G D C 
                ohhhhh
                 Em G 
we can turn the water out
                         D C 
and turn these songs into a crowd
                 Em G 
stop these tears from running down
                   D      
cause nobody can touch you now
                 C Em G Em G                      
(nobody) can touch you now hey     hey  hey   hey   one two



CHORUS


 Em G Em G 
   hey    hey      hey     untouchable

Old Pine Tabs by Ben Howard V6

 This is technically my first tab, so have a little patience and understanding :) I know
it’s an old-ish song and several tabs already exist, but it’s such an awesome song and
simply has to be tabbed correctly from top to bottom. The other tabs are not necessarily 
incorrect, but some parts are missing or just need a bit of fine-tuning. This tab is
especially for the people that want the lyrics with and see how they fit into the song 
for singing and so.

TUNING: CGCGGC
Capo: 5th Fret


Personally, I play this song with my 2nd, 3rd, 4th and 5th fingers on the bottom four
strings, so that my thumb is free on the top two strings (5th and 6th strings/G and C) to
play the bass notes and such. But whatever you’re comfortable with goes, I guess. Also, 
slide the bottom note onto the next one.


INTRO
00:00 to 00:43

C|----7-----5-----4-----2-----7-----5-----4-----0---|
G|---9-----7-----5-----4-----9-----7-----5-----4----|
G|--0-----0-----0-----0-----0-----0-----0-----0-----|
C|-0-----0-----0-----0-----0-----0-----0-----0------|
G|--------------------------------------------------|
C|--------------------------------------------------|

C|---------------------------------|----------------------------------|
G|--------5----------------5-------|---------5----------------5-------|
G|----0-----0---0------0-----0---0-|-----0-----0---0------0-----0---0-|
C|--0---0-----0------0---0-----0---|---2---2-----2------2---2-----2---|
G|2----------------2---------------|0-----------------0---------------|
C|---------------------------------|----------------------------------|


C|----7-----5-----4-----2-----7-----5-----4-----0---|
G|---9-----7-----5-----4-----9-----7-----5-----4----|
G|--0-----0-----0-----0-----0-----0-----0-----0-----|
C|-0-----0-----0-----0-----0-----0-----0-----0------|
G|--------------------------------------------------|
C|--------------------------------------------------|

C|---------------------------------|----------------------------------|
G|--------5----------------5-------|---------5----------------5-------|
G|----0-----0---0------0-----0---0-|-----0-----0---0------0-----0---0-|
C|--0---0-----0------0---0-----0---|---2---2-----2------2---2-----2---|
G|2----------------2---------------|0-----------------0---------------|
C|---------------------------------|----------------------------------|

C|----7-----5-----4-----2-----7-----5-----4-----0---|
G|---9-----7-----5-----4-----9-----7-----5-----4----|
G|--0-----0-----0-----0-----0-----0-----0-----0-----|
C|-0-----0-----0-----0-----0-----0-----0-----0------|
G|--------------------------------------------------|
C|--------------------------------------------------|

C|---------------------------------|----------------------------------|
G|--------5----------------5-------|---------5----------------5-------|
G|----0-----0---0------0-----0---0-|-----0-----0---0------0-----0---0-|
C|--0---0-----0------0---0-----0---|---2---2-----2------2---2-----2---|
G|2----------------2---------------|0-----------------0---------------|
C|---------------------------------|----------------------------------|

C|----------------------------------|
G|---------5----------------5-------|
G|-----0-----0---0------0-----0---0-|
C|---2---2-----2------2---2-----2---|
G|0-----------------0---------------|
C|----------------------------------|

The second part of the intro is basically the same as the first, just with some
“Ooooooh”’s added. If you want to sing this part, just harmonize with the notes being 
played, it
sounds great! It’s easy to pick up if you listen to the track.

00:43-01:17

C|----7-----5-----4-----2-----7-----5-----4-----0---|
G|---9-----7-----5-----4-----9-----7-----5-----4----|
G|--0-----0-----0-----0-----0-----0-----0-----0-----|
C|-0-----0-----0-----0-----0-----0-----0-----0------|
G|--------------------------------------------------|
C|--------------------------------------------------|
  Ooo

Keep Your Head Up chords – Ben Howard V3

 This is an alternative way to play the song that I think sounds pretty good.  Its 
sort of a mixture between a tab version of the song and a chord version.

There is no capo for this version but tune the guitar like this:

EADGAd

Sine the two bottom strings are tuned down play the chords like this:

 C :  032000
 Em : 022000
 G : 320000
 D :  000200

For the chorus it sounds best if the chords are played like this:

 Em :  079000
 D : 057000
 C : 035000

Although you could just play them the same way as in the verses if you prefer.

Verse 1:

 C Em G C 
I spent my time watchin' the spaces that have grown between us.
                      Em G C 
And I cut my mind on second best or the scars that come with the greeness.
                           Em G C                
And I gave my eyes to the boredom, still the seabed wouldn't let me in,
                                    Em G C       
And I tried my best to embrace the darkness in which I swim.

Verse 2: 

 C Em G C 
I'm walkin' back down this mountain with the strength of a turnin' tide
                             Em G C 
Oh the wind's so soft on my skin, the sun so hard upon my side.
                         Em G C 
Oh lookin' out at this happiness, I search for between the sheets.
                      Em G C 
Oh feelin' blind and realize, all I was searchin' for was me.
 Em G C D 
Ooh all I was searchin' for was me.

Chorus: (use the second alternative set of chords)

 Em D C 
Keep your head up, keep your heart strong, no, no, no, no.
 Em D C 
Keep your mind set,keep your hair long. Oh my my darlin' 
 Em D C 
Keep your head up, keep your heart strong, no no no no.
 Em D C 
Keep your mind set in your ways, keep your heart strong.

Verse 3: (switch back to the first set of chords)

 C Em G C 
I saw a friend of mine the other day, and he told me that my eyes were gleamin'.
                                   Em G C 
Oh I said I had been away, and he knew, oh he knew the depths I was meanin'.
                                Em G C 
And it felt so good to see his face, or the comfort invested in my soul.
                             Em G C 
Oh to feel the warmth of a smile, when he said "I'm happy to have you home.
 Em G C D 
Ooh I'm happy to have you home."

Chorus: (use the second alternative set of chords)

 Em D C 
Keep your head up, keep your heart strong, no, no, no, no.
 Em D C 
Keep your mind set,keep your hair long. Oh my my darlin' 
 Em D C 
Keep your head up, keep your heart strong, no no no no.
 Em D C 
Keep your mind set in your ways, keep your heart strong.
             Em G C 
'Cause I'll always remember you the same.
     Em G C 
Oh eyes like wild flowers within demons of change.


 Em D C 
Keep your head up, keep your heart strong, no, no, no, no.
 <span

Only Love Tabs by Ben Howard V9

 ---------------------------------------------------------------------------
                             ONLY LOVE - Ben Howard
---------------------------------------------------------------------------
: Chelsie Lawsen


This is my absolute favourite song in the world so I thought I would have a go tabbing it, enjoy!

Tuning: A# F C G G C capo on 3

INTRO

e|----------------------------------12-12--------12-12--------------------|
B|------------------------------------------------------------------------|
G|-------5\0-2p---------5\0-2p--------------------------------------------|
D|--5-5-----------5-5------------9-9----------9-9-------------------------|
A|------------------------------------------------------------------------|
E|--4-4-----------4-4------------7-7--------7---7-------------------------|

e|-----------------------------------0--0----0--------0--0----------------|
B|-----------------------------------0-------0--------0-------0-----------|
G|-------5\0-2p-------5\0-2p---------0----0--0--------0----0--------------|
D|-5-5-----------5-5--------------9--9-------9-----9--9-------9-----------|
A|-----------------------------------0-------0--------0-------0-----------|
E|-4-4-----------4-4------------7----7-------7---7----7-------7-----------|

VERSE 

e|----------------------------------12-12--------12-12--------------------|
B|------------------------------------------------------------------------|
G|-------5\0-2p--------5\0-2p---------------------------------------------|
D|--5-5-----------5-5------------9-9----------9-9-------------------------|
A|------------------------------------------------------------------------|
E|--4-4-----------4-4------------7-7--------7---7-------------------------| x4

FILL (no lyrics)

e|----------------------------------12-12--------12-12--------------------|
B|------------------------------------------------------------------------|
G|-------5\0-2p--------5\0-2p---------------------------------------------|
D|--5-5-----------5-5------------9-9----------9-9-------------------------|
A|------------------------------------------------------------------------|
E|--4-4-----------4-4------------7-7--------7---7-------------------------|

e|-----------------------------------0--0----0--------0--0----0-----------|
B|-----------------------------------0-------0--------0-------0-----------|
G|------5\0-2p--------5\0-2p---------0----0--0--------0----0--0-----------|
D|-5-5-----------5-5--------------9--9-------9-----9--9-------9-----------|
A|-----------------------------------0-------0--------0-------0-----------|
E|-4-4-----------5-5------------7----7-------7---7----7-------7-----------|

CHORUS

e|------------------------------------------------------------------------|
B|------------------------------------------------------------------------|
G|------------------------------------------------------------------------|
D|--5--4---9---12\9--9--12\9--9----5--4---9------12---12---12---12--------|
A|-----------------------------------------------12---12---12---12--------|
E|--4--2---7-----------------------4--2---7-----0----0----0----0----------|


e|------------------------------------------------------------------------|
B|------------------------------------------------------------------------|
G|------------------------------------------------------------------------|
D|--5--4---9------12---12---12---12---12---12---12---12-------------------|
A|----------------12---12---12---12---12---12---12---12-------------------|
E|--4--2---7-----0----0----0----0----0----0----0----0---------------------|

VERSE

e|----------------------------------12-12--------12-12--------------------|
B|------------------------------------------------------------------------|
G|------------------------------------------------------------------------|
D|--5-5--------------------------9-9----------9-9---------------------