Tag: hunter

Waves chords – The Dear Hunter V3

 Key: Eb


*You can play this easier by using Capo 3 and transposing these chords down 3 steps.



 Eb Cm G#  x2



 Eb Cm   
  I thought that I knew love
 G# Eb Bb G# 
  But it was just a wave crashing over us
 Cm Eb 
  And in the breaths between the ones we meant to breathe
          Bb G# 
I had my head under my feet

You knew the way things were
                      
You knew the way they would be
 G# Cm 
We knew exactly how it'd end



 Cm Eb G# Cm Eb 
  Strays on a stale sea
                           Bb G# 
Oh anchor the engine to a canyon far beneath
 Cm Eb 
  Water rushed up from the boards below
                          Bb G# 
So I started slicking my hair with the kerosene

You knew the way things were
                      
You knew the way they would be
                          Eb 
We knew exactly how it'd end




 Eb Cm 
  And I'm preparing for a burial at sea
     G# Bb    
But I can see the lighthouse
 Eb Cm 
  Yet I'm praying that these waters don't take me
       G# Bb Cm 
Cause I can see the lighthouse




 Cm Eb G#  x2




 Fm 
I was screaming that the ship was sinking
     Cm 
But you were telling me to just keep drinking
 Bb 
Corded in the parts again
 G# 
Arms and legs at the bottom of the ocean
 Fm 
And the thing that made it so much harder
 Cm 
Was the fact that you were someone's daughter
 G# 
I knew the way things were

I knew the way they would be
                         Eb 
I knew exactly how it'd end



 Eb Cm 
  And I'm preparing for a burial at sea
     G# Bb    
But I can see the lighthouse
 Eb Cm 
  Yet I'm praying that these waters don't take me
       G# Bb Cm 
Cause I can see the lighthouse



 Eb Cm   
  I thought that I knew love
 G# Eb Bb G# 
  But it was just a wave crashing over us

King Of Swords Reversed chords – The Dear Hunter

 Key: C


 F G F G G 
Gears turning that no wrench can attack
 F 
Consideration
    G F 
Or pause had their time come and pass
 G F G 
No gloves bet you can't get enough
        G F G 
Make a fine parade so the public sways in your wake



 G                    
I just thought that I would go
 F 
Till the money's gone
 G F 
I never wanted to fake it
 G 
Now I can't stop till everyone
          F 
Who ever done me wrong
 G           
Knows I’m not willing to take it




                   F 
Boy, you've got a Hard time

Bring yourself to glory
 G 
(Do do do do do do do do do do)
              F 
You've got a Hard time

Bring yourself to glory




 G F 
I never wanted my name up in bright lights
                          C 
But I think that I might be there soon
                 F 
I owe it all to you (I owe it all to you)
 G F 
I was never Looking for fame or the limelight
                          C 
But I think that I might be there soon
                 F G 
I owe it all To you



 G F 
No one ever told me what it meant to be alone
 G F 
I had to learn on my lonesome
 G                           
Now every feigning flame I chance upon
           F 
I put the fire on
 G 
I keep my wheels in motion




                   F 
Boy, you've had a hard time

Bring yourself to glory




 G F 
I never wanted my name up in bright lights
                          C 
But I think that I might be there soon
                 F 
I owe it all to you (I owe it all to you)
 G F 
I was never Looking for fame or the limelight
                          C 
But I think that I might be there soon
                 G 
I owe it all To you

A Night On The Town chords – The Dear Hunter

 Key: G


 G Em G Em G Em D  x2



 Em 
I've been misplaced in so many ways
 Bbm Em 
Broken battlegrounds, hiding veils of delicate deceit
     Am 
Yet here I breathe
 Em 
Teeth still gleam from holy water
       C 
While millions of lambs migrate to the slaughter
    B Em Am 
My head in a bag and my hands are bound to my feet
 D 
And voices sing:



 B 
"Were we erased like common thieves?
 Em 
Tossed in a cell to feast with the fleas
 B C 
All because we never had written a word."



             G 
What will I see, tonight in these eyes
     D C              
And what will i know when the morning comes?
 Em D G 
    What will I see, tonight in these eyes
     D C Em D 
And what will I know when the morning comes?



 B Em 
Must we remind of exchanges existing so long ago?
 B 
Would we arrive at agreeable musings
 Em D 
Sentimental or just confusing
    B 
We lost what we had but we took it back
 Am G Em 
Friends in the gutter, enjoy one another
      B C 
Just give yourself to the dust and the dirt where you stand


             G 
What will I see, tonight in these eyes
     D C              
And what will i know when the morning comes?
 Em D G 
    What will I see, tonight in these eyes
     D C              
And what will I know when the morning comes?




     Em D Am 
I'm not who you think I am
               C B 
And even if I thought you'd known
                    Am 
I never would have told you so
     G 
And more alarming
              C A D 
I would have done the very same
            C A D 
Would have stole more than your name
            C A D Am 
Would have cursed and bought the world on your shoulders
              B 
I was in the wrong place

At the right time




     Em D G 
And what's the worst I'd see
                                 C 
By giving myself to the earth below me
     Em D G C 
Not knowing how far I'd fall, by casting away the ordinary
      G D G C 
Just how long can I stay in illusions formed here long before me?
     G D G C 
And how long can I breathe this stolen breath here underneath?




 Em C 
  There's that subtle smile that did me in
 D Em 
She moves...
            C 
An agony reminds where I've been
 D Em 
She breathes
                     C 
"I'd never let this happen again."


 Am Em 
Where's your heart?
 C G 
Mimicking the patriarch
 Am C 
She's naive... 

Wounded chords – Hunter And The Bear

 Original is half step down.

 D A D       
Oh brother, you're wounded
 G D A 
  Never known a fallen son
 Bm A G   
   Saw you laid on the table
                     A 
Nothing I could've done

 D A D 
  Cut down, we are lonesome
 G D A 
  There's no more trees in the wood
 Bm A G 
   Strike a match in a raincloud
                        A 
Doesn't burn like it should


  D A G 
I'll be there when darkness is around
                Em A 
Oh my brother, I know you're scared
 D A Bm A G 
I wont let the leaves outside your window hit the ground
           A 
It isn't fair


 D A D 
  Oh brother, you're weary
 G D A 
  Tired eyes and brittle bones
 Bm A G 
   Heavy weight on your shoulders
                   A 
Let us carry the load



  D A G 
I'll be there when darkness is around
                Em A 
Oh my brother, I know you're scared
 D A Bm A G 
I wont let the leaves outside your window hit the ground
           A 
It isn't fair



Solo:  D A D G D A Bm A G A D A D 
  Oh brother, you're wounded
 G D A 
  I've never known a fallen son
 Bm A G 
   You were brave when you told me long ago
                                                  A 
'You know you're old, but you never know you're young.'



  D A G 
I'll be there when darkness is around
                Em A 
Oh my brother, I know you're scared
 D A Bm A G 
I wont let the leaves outside your window hit the ground
           A 
It isn't fair

ends on  D


21 chords – Hunter Hayes V2

 Gsus2  [300033]
 Em7    [x22033]
 G      [320033]
 D      [xx0232]
 Cadd9  [x23033]




Capo 3

 G Cadd9 D G Cadd9 D G Cadd9 D 
Well, it’s your birthday, let’s act like it is, and just go crazy 
     Em7 D Gsus2 
Do what we want with no reason why
 G Cadd9 D G Cadd9 D G Cadd9 D 
Life ain’t long enough, so let’s celebrate, and get drunk on good love
                             Em7 D Gsus2 
Remember what it’s like to just dance all night
 Em7 D Gsus2 
We’ll dance all night



 Cadd9 Gsus2 D 
That’s the way that we’re doing it, doing it
                 Em7 D Gsus2 
We go big or we go back home
 Cadd9 Gsus2 D 
People looking at us like we’re losing it, losing it
                         Em7 D Gsus2 
But, baby, we ain’t doing nothing wrong
 Cadd9 Gsus2 
Gonna be up all night
 D Em7 D 
Chasing the sunrise
 Cadd9 Gsus2 
Like we’re wild and young
 Gsus2            
Baby, kids on the run
 Em7 D 
Gonna party like we just turned 21


 G Cadd9 D G Cadd9 D G Cadd9 D G Cadd9 D G Cadd9 D 
Let’s treat this town, like we own it, and baby if you wanna get out
 G Cadd9 D 
You can drive this car like you stole it
 Em7 D Gsus2  
Like we’re runaways, like we’re superstars
 Em7 D Gsus2 G  
Like we’re fireworks burning in the dark



 Cadd9 Gsus2 D 
That’s the way that we’re doing it, doing it
                 Em7 D Gsus2 
We go big or we go back home
 Cadd9 Gsus2 D 
People looking at us like we’re losing it, losing it
                         Em7 D Gsus2 
But, baby, we ain’t doing nothing wrong
 Cadd9 Gsus2 
Gonna be up all night
 D Em7 D 
Chasing the sunrise
 Cadd9 Gsus2 
Like we’re wild and young
 Gsus2            
Baby, kids on the run
 Em7 D 
Gonna party like we just turned 21



 Cadd9 Gsus2 
Ain’t nobody wants to act their age
 D Em7 D 
Ain’t no sense in us living this way
 Cadd9 Gsus2 
You and I, girl, we gotta get away
 D Em7 Gsus2 Cadd9 Em7 D 
And make tonight the best night of our lives



 Cadd9 Gsus2 D 
That’s the way that we’re doing it, doing it
                 Em7 D Gsus2 
We go big or we go back home
 Cadd9 Gsus2 D 
People looking at us like we’re losing it, losing it
                         Em7 D Gsus2 
But, baby, we ain’t doing nothing wrong
 Cadd9 Gsus2 
Gonna be up all night
 D Em7 D 
Chasing the 

21 chords – Hunter Hayes

 Capo 3
Hope these chords work! 

 C 
Well, it's your birthday
 C 
Let's act like it is
 C 
And just go crazy
 C A      
Do what we want with no reason why
 C 
Life ain't long enough
 C 
So let's celebrate
 C 
And get drunk on good love
 C A 
Remember what it's like to just dance all night
 F 
We'll dance all night

[Chorus:]
 C 
That's the way that we're doing it, doing it
 A 
We go big or we go back home
 C 
People looking at us like we're losing it, losing it
 A 
But, baby, we ain't doing nothing wrong
 Em 
Gonna be up all night
 A7 
Chasing the sunrise
 F 
Like we're wild and young
Baby, kids on the run
 F C 
Gonna party like we just turned 21

Verse 2 
 C 
Let's treat this town
 C 
Like we own it
 C 
And baby, if you wanna get out
 C 
You can drive this car like you stole it
 C 
Like we're runaways, like we're superstars
 A 
Like we're fireworks burning in the dark

[Bridge]
 Em 
Ain't nobody wants to act their age
 A7 
Ain't no sense in us living this way
 Em 
You and I, girl, we gotta get away
 A7 C 
And make tonight the best night of our lives

Invisible Tabs – Hunter Hayes

 Invisible by Hunter Hayes

This is my second tab. :) I dedicate this song to Sheena, sana po magustuhan nyo.
Just listen na lang po sa song para masundan. May suggestion or may dapat i-fix 
comment lang po kayo and don't forget to rate :) Thank you po.

 LeoGones
Email: leoalonzogonesjr
Facebook account: https://www.facebook.com/leo.gones

Tuning: Standard                  Chord used: C, F, G , Am , Dm
CAPO: 1ST FRET 

--------------------------------------------------------------------------------------------------
Intro

            C                                      F                  
e|----------1--------0---------1--0--------0-------1--------0-----------------3--1-----|
B|-------1--1---------------------------3-------------------------------1--3-----------|
G|---0------0-----------------------------------------------------------2--------------|
D|-------------------------------------------------3-----------------------------------|
A|----------3--3--3--3---3--3--3--3--3--3--3-------------------------------------------|
E|-------------------------------------------------1--1--1--1--1--1--1--------1--1-----|

e|--0-----0------|
B|-----3---------|
G|---------------|
D|---------------|
A|---------------|
E|--1--1--1------|

--------------------------------------------------------------------------------------------------
VERSE 1
  

      C                                Am          
      Crowded Hallways are the lone... outcasts and rebels Or anyone who just dares
e|---------------------1------0--------------------------------------------|
B|----1-----------------------1---------3------1---------3------1----------|
G|----0------0---------0----------------2------2---------2------2----------|
D|-----------2-------------------------------------------------------------|
A|----3-3-3--3-3-3-3-3-3-3-3--3-3-3-3-3-0-0-0--0-0-0-0-0-0-0-0--0-0-0-0-0--|
E|-------------------------------------------------------------------------|

      F
      to be different
e|------------------------------------------|
B|------------------------------------------|
G|----2------0----------2------0------------|
D|----3------3----------3------3------------|
A|------------------------------------------|
E|----1-1-1--1-1-1-1-1--1-1-1--1-1-1-1-1----|

And you've been
      C                                 Am
      trying for so long to find out... their narrow minds, there's no room for anyone
e|----1------0---------1------0--------------------------------------------|
B|-----------1----------------1---------3------1---------3------1----------|
G|----0----------------0----------------2------2---------2------2----------|
D|-------------------------------------------------------------------------|
A|----3-3-3--3-3-3-3-3-3-3-3--3-3-3-3-3-0-0-0--0-0-0-0-0-0-0-0--0-0-0-0-0--|
E|-------------------------------------------------------------------------|
  
who   
      F                                       G
 dares to do something different|Oh but listen for a minute
e|----0-------------------------0--0-------------------------------------------------|
B|-----------3----------1---3----------3------1------0----------1------3-------------|
G|----2------2---------------------2----------0------0--------0----------------------|
D|--------------------------------------------0------0-------------------------------|
A|-----------------------------------------------------------------------------------|
E|----1-1-1--1-1-1-1-1-------------1-1-1-1-1--3-3-3--3--3-3-3---3-3-3--3-3-3-3-3-----|

 

--------------------------------------------------------------------------------------------------

CHORUS (strum)

C                                                             
Trust the one who's been where you are wishing all it was 
F
sticks and stones
                                                Dm
Those words cut deep but they don't mean you're all alone
       G
You're not invisible
C
Hear me out, there's so much more to life than what you

Hunter Of Invisible Game chords – Bruce Springsteen

 BRUCE SPRINGSTEEN: Hunter of Invisible Game
From the  High Hopes

 E - A - B - E E - A - B - E E - A - B - E E - A - B - E E A B E 
I hauled myself up out of the ditch
     E A B E 
And built me an ark of gopher wood and pitch
     E A B E 
Sat down by the roadside and waited on the rain
 E A B E 
I am the hunter of invisible game

 E - A - B - E E A B E 
Well I awoke last night to the heavy clicking and clack
       E A B E 
And a scarecrow on fire along the railroad tracks
            E A B E 
There were empty cities and burning plains
 E A B E 
I am the hunter of invisible game

 E - A - B - E E - A - B - E C#m B A E 
We all come up a little short and we go down hard
            E A B E 
These days I spend my time skipping through the dark
             E A B E 
Through the empires of dust, I chant your name
 E A B E 
I am the hunter of invisible game

 E - A - B - E E - A - B - E E A B E 
Through the bone yard rattle and black smoke We rolled on, 
 E A B E 
Down into the valley Where the beast has his throne
         E A B E 
There I sing my song and I sharpen my blade
 E A B E 
I am the hunter of invisible game

 E - A - B - E C#m B A E 
Strength is vanity and time is illusion
   E A B E 
I feel you breathing, the rest is confusion
      E A B E 
Your skin touches mine, what else to explain
 E A B E 
I am the hunter of invisible game

 E - A - B - E E - A - B - E E A B E 
Now pray for yourself that you may not fall
          E A B E 
When the hour of deliverance comes on us all
          E A B E 
When our hope and faith and courage and trust
     E A B E 
Can rise or vanish like dust into dust

            C#m B A 
There is a kingdom of love waiting to be reclaimed
 E A B E 
I am the hunter of invisible game
 E A B E 
I am the hunter of invisible game
 E A B E 
I am the hunter of invisible game

Invisible chords – Hunter Hayes

 Capo on 1st Fret

Invisible by Hunter Hayes

Intro
 C Am 

VERSE 1

 C                                            
Crowded Hallways are the loneliest places 
     Am F 
for outcasts and rebels Or anyone who just dares 

to be different
                 C 
And you've been trying for so long to find out where your place is
        Am F 
But in their narrow minds, there's no room for anyone who dares to do 

something different
               G 
Oh, but listen for a minute


CHORUS

 C                                                              
Trust the one who's been where you are wishing all it was was 
 F 
sticks and stones
                                                 Dm 
Those words cut deep but they don't mean you're all alone
        G 
You're not invisible
 C 
Hear me out, there's so much more to life than what you're 
 F 
feeling now Someday you'll look back on all these 
 Dm G 
days and all this pain is gonna be... 
                C 
Invisible
                F 
Oh, invisible

VERSE 2

         C 
So your confidence is quiet To them quiet looks like weakness 
     Am 
but you don't have to fight it Cause you're strong enough to win 
     F 
without the war
 C 
Every heart has a rhythm, let yours beat out so loudly
      Am 
That everyone can hear it, yeah, promise you don't need to 
         F 
hide it anymore
                                            G 
Oh, and never be afraid of doing something different

Dare to be something more

CHORUS

 C                                                              
Trust the one who's been where you are wishing all it was was 
 F 
sticks and stones
                                                 Dm 
Those words cut deep but they don't mean you're all alone
            G 
You're not invisible
 C 
Hear me out, there's so much more to life than what you're 
 F 
feeling now Someday you'll look back on all these 
 Dm G 
days and all this pain is gonna be... 
               C 
Invisible


BRIDGE

        F C 
These labels that they give you just 'cause they don't understand
 Am 
If you look past this moment, you'll see you've got a friend
          F 
Waving a flag, for who you are, and all you're gonna do
          G 
Yeah, so here's to you and here's to anyone who's ever felt 
    C F           
invisible           
           Dm 
Yeah....
        C G       
You're not invisible

CHORUS


 C 
Hear me out, there's so much more to life than what you're 
 F 
feeling now Someday you'll look back on all these 
 Dm F G 
days and all this pain is gonna be... 
 C              
Invisible
          F C 
It'll be invisible

Source: http://www.directlyrics.com/hunter-hayes-invisible-lyrics.html

Echo Tabs by The Dear Hunter

 -------------------------------------------------------------------------------
                             Echo - The Dear Hunter
-------------------------------------------------------------------------------
: ford.adm


Tuning: Standard EADGBE

Intro:                                                                  :x2
e|----------------------------------------------------|----------------------|
B|----------------------------------------------------|----------------------|
G|----------------------------------------------------|------12---12\--------|
D|-----------------------------------------9----------|------12---12\--------|
A|----7--7--------5h7-7------7--7-----9h11---11p9--7--|------10---10\--------|
E|0-0-------0--0--------0--0-------0------------------|----------------------|
                                                                                :x4
e|---------------------------------------------------------------------------|
B|---------------------------------------------------------------------------|
G|---------------------------------------------------------------------------|
D|-----------------------------------------9---------------------------------|
A|----7--7--------5h7-7------7--7-----9h11---11p9--7-------------------------|
E|0-0-------0--0--------0--0-------0-----------------------------------------|

Verse:1
   Gtr 1                                                                        x2
e|---------------------------------------------------------------------------|
B|---------------------------------------------------------------------------|
G|---------------------------------------------------------------------------|
D|-----------------------------------------9---------------------------------|
A|----7--7--------5h7-7------7--7-----9h11---11p9--7-------------------------|
E|0-0-------0--0--------0--0-------0-----------------------------------------|
 |
 | Gtr 2
e|---------------------------------------------------------------------------|
B|---------------------------------------------------------------------------|
G|---------------------------------------------------------------------------|
D|--2------------------------------------------------------------------------|
A|--2------------------------------------------------------------------------|
E|--0------------------------------------------------------------------------|

   Both: “Tongue to my teeth...”
e|---------------------------------------------------------------------------|
B|---------------------------------------------------------------------------|
G|--2------------5----------7------------------------------------------------|
D|--2------------5----5-----7----5----2--------------------------------------|
A|--0------------3----5-----5----5----2--------------------------------------|
E|--------------------3----------3----0--------------------------------------|

e|---------------------------------------------------------------------------|
B|---------------------------------------------------------------------------|
G|---------------------------------------------------------------------------|
D|-----------------------------------------9---------------------------------|
A|----7--7--------5h7-7------7--7-----9h11---11p9--7-------------------------|
E|0-0-------0--0--------0--0-------0-----------------------------------------|
 |


Repeat Verse 

   Both:
e|---------------------------------xxx--------xxx--------xxx--------xxx------|
B|---------------------------------xxx--------xxx--------xxx--------xxx------|
G|--2----5----------7---------9-9\-xxx---9-9\-xxx---9-9\-xxx---9-9\-xxx------|
D|--2----5----5-----7----5----9-9\-xxx---9-9\-xxx---9-9\-xxx---9-9\-xxx------|
A|--0----3----5-----5----5----7-7\-xxx---7-7\-xxx---7-7\-xxx---7-7\-xxx------|
E|------------3----------3---------xxx--------xxx--------xxx--------xxx------|


Chorus
  

Cry With You intro Tabs by Hunter Hayes

 Check out the chords to "Quiet Please" by Heffron Drive; "Elevate", "Lost In Love", 
"Here Comes Forever" tab by R5, "All You Ever" intro version 1 by Hunter Hayes, and 
"Unpredictable" solo version 1 by 5 Seconds Of Summer!! :-)

Capo: 1
Tuning: Standard

Repeat twice:
e--4-----------------------------------|
B-5-2-5-0-4----------------------------|
G------1-------------------------------|
D--------------------------------------|
A--------------------------------------|
E--------------------------------------|

Cry With You chords – Hunter Hayes V2

 Written and performed by the wonderful Hunter Hayes. 
 Simon Shapiro.

These are the right chords, but the placement isn't 100 percent accurate
NO CAPO

Intro:
 Am Fsus2 C G  x2



    Am Fsus2 C 
When you try not to look at me
                   G 
Scared that I'll see you hurting
 Am Fsus2 C 
You're not hiding anything,no
                  G C 
And frankly its got me worried
 Fsus2 C G C Fsus2 
Nobody knows you better than I do
               C G 
I keep my promises, I'm fighting for you


 C 
You're not alone
     G Am 
I'll listen 'till your tears give out
                         Fsus2 C 
You're safe and sound, I swear that I won't let you down
                    G 
What's hurting you I, I feel it too
     Am 
I mean it when I say
         Fsus2 C G     AmFsus2
When you cry, I cry with you, with you


 Am Fsus2 C 
I'm not going any place
                G 
I just hate to see you like this
   Am Fsus2 C 
No, I can't make it go away
                      G C Fsus2 
Oh, but keeping it inside won't fix it
            CG                     C Fsus2 
I can't give you every answer that you need
                 C G 
But I wanna hear everything you wanna tell me




 C 
You're not alone
     G Am 
I'll listen 'till your tears give out
                         Fsus2 C 
You're safe and sound, I swear that I won't let you down
                    G 
What's hurting you I, I feel it too
    Am 
I mean it when I say
        Fsus2 C G Am Fsus2 
When you cry, I cry with you, oh
                 C G C Fsus2 
Yeah, I cry with you


         C G C Fsus2 
You need love tough enough to count on
           Fsus2 
So here I am


 C 
You're not alone
      G Am 
I'll listen 'till your tears give out
                         Fsus2 C 
You're safe and sound, I swear that I won't let you down
                    G 
What's hurting you I, I feel it too
    Am 
I mean it when I say
        Fsus2 G 
When you cry, I cry 
    Am 
I mean it when I say 
        Fsus2 C G Am Fsus2 
When you cry, I cry with you, oh
                C G Am G Fsus2 
You're not alone, oh no, baby

Cant Say Love chords – Hunter Hayes V2

 Capo: None
Tuning: Standard

Chords used:  A F G F# D 

Intro:  A F G  2x

Verse1:
 A F 
She's got a smile of her own.
               G 
She's turning heads tonight.
 A F 
She's super hero strong,
                 G 
and that's her downfall sometimes.
 A F 
She's rather leave alone,
              G 
and its like kryptonite.
 F 
If she tries,
 G 
so she'll never try.

Chorus:
 F# A 
She can't say love,
     D               
and run the risk of being wrong.
 F# A 
It hurts too much,
     D                 
too find the edge and know you're jumping,
 F# 
into something,
 A 
maybe nothing,
 D 
never could be,
 D 
wish it was,
 F# A 
love, love, love.
 D 
Ohh.
 F# A D 
She can't say love.

Verse2:  A F G 
First time for everything,
and this is mine.
Can't seem to say how I feel,
and say it right.
You've been locked up so long,
but so have I.
 F 
When I try,
no matter,
 G 
how I try...


Chorus:
 F# A 
She can't say love,
     D               
and run the risk of being wrong.
 F# A 
It hurts too much,
     D                 
too find the edge and know you're jumping,
 F# 
into something,
 A 
maybe nothing,
 D 
never could be,
 D 
wish it was,
 F# A 
love, love, love.
 D 
Ohh.
 F# A D 
She can't say love.

[guitar solo]
 A F G A F G F# A D 

Outro:
                    F# 
But you're falling into something,
 A 
maybe could be,
 D                 
everything you're looking for.
 F# A 
But you can't say love.
 D                       
Oh no you can't say love.
 F# A 
You can't say love,
 D                    
and run the risk of being wrong.
 F# A 
It hurts too much,
 D                     
too find the edge and know you're jumping,
 F# 
into something,
 A 
maybe nothing,
 D 
never could be,
 D 
wish she could be,
 F# A 
love, love, love
 D   
Yeah, you're jumping
 F# 
into something,
 A 
maybe nothing,
 D 
could be never,
 D 
wish it was,
 F# A D 
love, love, love, love.

Ohhh.
 F# A D 
But you can't say love.
     A 
No, you can't say love.
 F 
You can't,
 G 
You can't,
 A  
You can't say love.
 F G 
You can't say love.
 A * once
You can't say love.

All You Ever intro Tabs by Hunter Hayes

 Here's the intro to "All You Ever" by Hunter Hayes!!!!!!!!

Check out the chords to "Lost In Love Feat. Jake Miller" by Big Time Rush, "Elevate" by 
Big Time Rush, and "Here Comes Forever" by R5!!!! :-)

Capo 1

Standard tuning.

Intro:

(Repeat 2x)

e------------------------|
B-----1-----1------------|
G------2-----2-0---------|
D-2-3----2-3-------------|
A------------------------|
E------------------------|

Wanted chords – Hunter Hayes V12

 ----------------------------------------------------------------------
                         Wanted - Hunter Hayes
----------------------------------------------------------------------
Capo: 5

Intro:  C  |  G/B  |  D/A  |  G/B       x2

Verse: 1
 C9 G/B D/A G/B 
You know I'd fall apart without you
 C9 G/B D/A G 
I don't know how you do what you do
 C9 G/B D/A G/B  
'Cause everything that don't make sense about me
 C9 G/B D/A G 
Makes sense when I'm with you

Verse: 2
 C9 G/B D/A G/B 
Like everything that's green, girl I need you
          C9 G/B D/A G 
But it's more than one and one makes two
 C9 G/B D/A G/B 
Put aside the math and the logic of it
 C9 G/B D/A G 
You gotta know you want it too

Chorus:
                Em D 
'Cause I wanna wrap you up
       C G 
Wanna kiss your lips
 Em D C G 
I wanna make you feel wanted
             Em D 
And I wanna call you mine
       C G Em 
Wanna hold your hand forever
 D C G 
Never let you forget it
 Em D C 
Yeah, I wanna make you feel wanted

 C  |  G/B  |  D/A  |  G/B 

Verse: 3
 C9 G/B D/A G/B 
Anyone can tell you you're pretty
 C9 G/B D/A G/B 
You get that all the time,       I know you do

 C9 G/B D/A G/B 
But your beauty's deeper than the make----up
 C9 G/B D/A G/B 
And I wanna show you what I see tonight

[Chorus]

Bridge:
 Am 
As good as you make me feel
 G/B C 
I wanna make you feel better
 Am 
Better than your fairy tales
 G/B C 
Better than your best dreams
                               D 
You're more than everything I need

You're all I ever wanted

All I ever wanted

[Chorus]

Yeah, baby I wanna make you feel
     C9 G/B D/A G/B 
Wanted
 C9 G/B D/A G 
'Cause you'll always be wanted

Everybodys Got Somebody But Me chords – Hunter Hayes V3

 C D G     
I wish the couple on the corner would just get a room
            C D Em 
Seems like everyone around me's on their honey moon
     C D G 
I’d love to take a pin to a heart shaped balloon
      C D G 
Everybody’s got somebody but me

           C D G 
Well I don’t know how I landed on this movie set
            C D Em 
It’s like a casting call for Romeo and Juliet
   C D G 
I never would of noticed if we never met
          C D G 
But Everybody’s got somebody but me


Chorus
            Em 
And I miss You
     C G 
Without you I just don’t fit in
              Em 
I know we’re through
         G C 
But I'm wishing we could try it again


        C D G 
I hear love songs playin’ on the radio
     C D Em 
And people slow dancing everywhere I go
           C D G 
Well I’m a good slow dancer but you'd never know
     C D G 
Everybody’s got somebody but me


Chorus
            Em 
And I miss You
     C G 
Without you I just don’t fit in
              Em 
I know we’re through
         G C 
But I'm wishing we could try it again


    C D G 
Sitting here lonely at a table for two
          C D Em 
Watching lovers being lovers in the corner booth
   C D G 
Seems like even Cupid don’t know what to do
     C D G 
Everybody’s got somebody but me


       C D G Em 
Yeah I Don’t know if I'll ever find another you
          C D G 
But everybody’s got somebody but me

My Throat Is An Open Grave Acoustic Tabs by Demon Hunter V2

 Technically there are 3 guitars playing in the acoustic version, but you can do it with 
2 and it sounds pretty good - just have one guitar play the "power chords" of all of the riffs.

The whole song is in Drop C (CGCFAD)

INTRO/Verses:
D|-------------------------------------------------------------------|
A|-----0----------0----------0----------0----------0----------0------|
F|--5---5-5----5---5-5----5---5-5----5---5-5----5---5-5----5---5-5---|
C|-7-7--------7-7--------3-3--------3-3--------5-5--------5-5--------|
G|-------------------------------------------------------------------|
C|-------------------------------------------------------------------|

D|-------------------------|
A|------0-----------0------|
F|---5---5-5-----5---5-5---|
C|--4-4---------4-4--------|
G|-------------------------|
C|-------------------------|

VERSE 1:
(Same as intro)

CHORUS (chords - figure out placement/rhythm with song):
D|--0--|
A|--5--|
F|--0--|
C|--3—-|
G|--3--|
C|--3--|

D|--0--|
A|--0--|
F|--0--|
C|--6—-|
G|--6--|
C|--6--|

D|--0--|
A|--0--|
F|--0--|
C|--7—-|
G|--7--|
C|--7--|

VERSE 2:
(Same as intro)

(CHORUS)

BRIDGE/OUTRO chords – figure out placement with song:
D|-----|
A|-----|
F|-----|
C|--7—-|
G|--7--|
C|--7--|

D|-----|
A|-----|
F|-----|
C|--6—-|
G|--6--|
C|--6--|

D|-----|
A|-----|
F|-----|
C|--5—-|
G|--5--|
C|--5--|

D|-----|
A|-----|
F|-----|
C|--4—-|
G|--4--|
C|--4--|

SOLO over BRIDGE/OUTRO:
D|------------------------------------------------------|
A|------------------------------------------------------|
F|---9-7--9b^9---5--9-5--9b^9---4--5-4---5-4--1--2/4----|   2x
C|------------------------------------------------------|
G|------------------------------------------------------|
C|------------------------------------------------------|

Misery (tab) – Hunter chords

intro                ||---------------2 razy------------||
-----------------------------------------------------------------
-----------------------------------------------------------------
-----------------------------------------------------------------
-------2--------2------------------------------------------------
-------2------2-2------------------------------------------------
-1s8s1-0------0-0-----0-0-7-00-7-777-6-0-00-7-00-7-77-7-6--------

||----2 razy-----|| ||----3 razy----||
-----------------------------------------------------------------
-----------------------------------------------------------------
-----------------------------------------------------------------
-----------------------------------------------------------------
-----------------------------------------222-222-----------------
-000-6-00-77-0-66----000-xxxxx-7-7-6-----000-000-----------------

36s:
-----------------------------------------------------------------
-----------------------------------------------------------------
-----------------------------------------------------------------
-----5---------------5-------------------------------------------
-----------------------------------------------------------------
-0-0---0-777-766--0-0--00-77-6-33-5------------------------------

1:01 s:                 Misery..
-----------------------------------------------------------------
-----------------------------------------------------------------
-----------------------------------------------------------------
-----------------------------------------------------------------
------9------9------8--------------------------------------------
-7777-7-7777-7-6666-6--------------------------------------------

1:23
riff z intra + powyzszy, riff z intra +
-----------------------------------------------------------------------------
-----------------------------------------------------------------------------
-----------------------------------------------------------------------------
-----------------------------------------------------------------------------
---------------------------------------------9------9-----------9------------
----------------------------------------7777-7-7777-7-0000-7777-7-7777-00-77-

nastepnie riff z konca intro,

zwrotka, przejscie i refren tak samo,

Misery .. 2:37s
-------------------------------------------------------------------
-------------------------------------------------------------------
-------------------------------------------------------------------
----------------------------------------8--------------------------
-------------------------9------9-9-9-0-8--------------------------
-0000-3s5-00003s5-5-7777-7-7777-7-7-7-0-6--------------------------

nastepnie riff z intro,
akustyczna:
||---------------------2 razy----------||
-----------------------------------------------------------------
-----------------------------------------------------------------
--------3-------4------------------------------------------------
---3-3s4-----4s6------4p3-6-3p0-4-1p0-3-----2--------------------
--1-------2--------2------------------------2--------------------
-----------0--------0-----------------------0--------------------

riff z intro, podczas solo glowny riff,

koniec:
-----------------------------------------------------------------
-----------------------------------------------------------------
-4-4---4-----3---3-----------------------------------------------
-4-4--4-4----3--3-3-----2-2--------------------------------------
-2-2-2---2---1-1---1----2-2--------------------------------------
------------------------0-0--------------------------------------

Arges – Hunter chords

dropped C

Intro (Piano)
|----------------|----------------|----------------|----------------|
|----------------|----------------|----------------|----------------|
|----------------|----------------|----------------|----------------|
|----------------|----------------|----------------|----------------|
|----------------|----------------|----------------|----------------|
|-0------0-------|-0------0-------|-0------0-------|-0------0-------|

|----------------|----------------|----------------|----------------|
|----------------|----------------|----------------|----------------|
|----------------|----------------|----------------|----------------|
|----------------|----------------|----------------|----------------|
|----------------|----------------|----------------|--------4-------|
|-0------0-------|-0------0-------|-0------0-------|-0--------------|

|----------------|----------------|----------------|----------------|
|----------------|----------------|----------------|----------------|
|----------------|----------------|----------------|----------------|
|----------------|----------------|----------------|----------------|
|----------------|----------------|----------------|----------------|
|-0------0-------|-0------0-------|-0------0-------|-0---7--6--2----|

 (Guitar)
|----------------|----------------|----------------|----------------|
|----------------|----------------|----------------|----------------|
|----------------|----------------|----------------|----------------|
|-0--------------|----------------|----------------|----------------|
|-0--------------|----------------|----------------|----------------|
|-0-----(0)------|-(0)----(0)-----|-(0)----(0)-----|-(0)----(0)-----|

|----------------|----------------|----------------|----------------|
|----------------|----------------|----------------|----------------|
|----------------|----------------|----------------|----------------|
|----------------|----------------|----------------|----------------|
|-0--------------|-0--------------|-0--------------|-0--------------|
|-0--------------|-0--------------|-0--------------|-0--/7~-6~-2~---|
  pm               pm               pm              pm      PH...

                                                    1...............  2......................
|----------------|----------------|----------------|----------------|-------------------------|
|----------------|----------------|----------------|----------------|-------------------------|
|----------------|----------------|----------------|----------------|-------------------------|
|-8------0-------|-8------0-------|-8------0-------|-7--------------|-7-7-7-7-7-7-7-----3/4/5-|
|-8------0-------|-8------0-------|-8------0-------|-7--------------|-7-7-7-7-7-7-7-----1/2/3-|
|-8------0-------|-8------0-------|-8------0-------|-7--------------|-7-7-7-7-7-7-7-----------|
                                                                      pm...........

                           1........................ 2.........................
|-------------------------|-------------------------|--------------------------|
|-------------------------|-------------------------|--------------------------|
|-------------------------|-------------------------|--------------------------|
|-8-----7-----5/7---7-----|-3----------1------3/4/5-|-3-----------1------3/4/5-|
|-6-----5-----3/5---5-----|-3----------1------1/2/3-|-3---3-1h3p1-1------1/2/3-|
|---0-0---0-0-----0---0-0-|-3----------1------------|-3-----------1------------|
    pm.   pm.    pm   pm.

 3........................ 4.........................
|-------------------------|--------------------------|----------------|----------------|
|-------------------------|--------------------------|----------------|----------------|
|-------------------------|--------------------------|----------------|----------------|
|

NieRaj – Hunter tabs V2

Poczatek:
------------------------------
------------------------------
------------------------------
-8--7--0----8--7--0--------6--
-8--7--0----8--7--0--------6--


------------------------------
------------------------------
------------------------------
------------------------------
-8--7--0----2--3--0--2--3--1--
-8--7--0----2--3--0--2--3--1--


Zwrotka:

---------------------------------------------------------------
---------------------------------------------------------------
---------------------------------------------------------------
---------------------------------------------------------------
-0-0--0-0--0-0----0-0--0-0--0-0----0-0--0-0--0-0---------------
-0-0--0-0--0-0----0-0--0-0--0-0----0-0--0-0--0-0---------------

---------------------------------------------------------------
---------------------------------------------------------------
---------------------------------------------------------------
---------------------------------------------------------------
-0-0--0-0--0-0--0-0----0-0--0-0--0-0--0-0----0-0--0-0--0-0--0-0
-0-0--0-0--0-0--0-0----0-0--0-0--0-0--0-0----0-0--0-0--0-0--0-0

Refren 1:
----------------------------------------------------------------
----------------------------------------------------------------
----------------------------------------------------------------
----------------------------------------------------------------
0----0--2--3--0-----0----2--3--5----8--7--5--3--2--3--0-0--0-0--
0----0--2--3--0-----0----2--3--5----8--7--5--3--2--3--0-0--0-0--

3 Zwrotka :
Poczatek pusty, miejscami:
---------------------------------------------------------------
---------------------------------------------------------------
---------------------------------------------------------------
---------------------------------------------------------------
0-0--0-0--0-0--0-0-----0-0--0-0--0-0--0-0----------------------
0-0--0-0--0-0--0-0-----0-0--0-0--0-0--0-0----------------------

Pod koniec 3 zwrotki :
---------------------------------------------------------------
---------------------------------------------------------------
---------------------------------------------------------------
---------------------------------------------------------------
--0-2-3--0-2-3--0-2-3--0-2-3--0-2-3--0-2-3--0-2-3--0-2-3--0-2-3
--0-2-3--0-2-3--0-2-3--0-2-3--0-2-3--0-2-3--0-2-3--0-2-3--0-2-3

,,Czas...juz czas" tak samo jak zwrotka