Tag: im

Sei Ein Faber Im Wind Piano Chords by Faber

[Verse]
Am
Einer von uns beiden ist ein Arschloch…
              G
Und das warst du
Am
Du mit deinen neuen Freunden
                             G
Freust dich über Matches auf Badoo
Am
Ja dein neuer der sei Rapper
dein neuer der sei besser
                            G
Dein Neuer hat ein Unterarmtattoo
Am
Dein neuer der trägt im Gesicht ein Vollbart
                   G
meine neue nur ein Flaum
        Dm           Am
Du bist einfach abgehauen

[Verse]
Am
Einer von uns beiden hat gelogen
            G
und das war ich
Am
ich habe dir gesagt
                                     G
es sei egal ich komme klar auch ohne dich
Am
und du hast es nicht geglaubt hast laut gelacht
                    G
und hast gesagt mal schauen
         Dm      Am
und bist einfach abgehauen

[Chorus]
          C                      E
Und jeder Jäger träumt von einem Reh
      Am                Dm
jeder Winter träumt vom Schnee
                            E
Jede Theke träumt von einem Bier
                                    Am
Warum du Nutte träumst du nicht von mir?

[Verse]
Am
Einer von uns beiden war ein Arschloch
         G
ich wars nicht
Am
du holst Kaffee bei Starbucks
                                G
mein leben ist ein start-up für dich
Am
Du lebst so euphorisch und ich lebe nur provisorisch
         G
Halb so schlimm
        Dm       Am
sei ein faber im wind

[Verse]
Am
Einer von uns beiden war ein Arschloch
                   G
ich glaube das ist klar
Am                                                      G
an Weihnachten hatte ich kein Geschenk für dich letztes Jahr
Am      
Du du hast mir gesagt, dass du mich magst
             G                    Dm      Am
und ich habe geglaubt und du bist einfach abgehauen

[Chorus]
          C                      E
Und jeder Jäger träumt von einem Reh
      Am                Dm
jeder Winter träumt vom Schnee
                            E
Jede Theke träumt von einem Bier
                                    Am
Warum du Nutte träumst du nicht von mir?

Sei Ein Faber Im Wind Chords by Faber

[Verse]
Am
Einer von uns beiden ist ein Arschloch…
              G
Und das warst du
Am
Du mit deinen neuen Freunden
                             G
Freust dich über Matches auf Badoo
Am
Ja dein neuer der sei Rapper
dein neuer der sei besser
                            G
Dein Neuer hat ein Unterarmtattoo
Am
Dein neuer der trägt im Gesicht ein Vollbart
                   G
meine neue nur ein Flaum
        Dm           Am
Du bist einfach abgehauen

[Verse]
Am
Einer von uns beiden hat gelogen
            G
und das war ich
Am
ich habe dir gesagt
                                     G
es sei egal ich komme klar auch ohne dich
Am
und du hast es nicht geglaubt hast laut gelacht
                    G
und hast gesagt mal schauen
         Dm      Am
und bist einfach abgehauen

[Chorus]
          C                      E
Und jeder Jäger träumt von einem Reh
      Am                Dm
jeder Winter träumt vom Schnee
                            E
Jede Theke träumt von einem Bier
                                    Am
Warum du Nutte träumst du nicht von mir?

[Verse]
Am
Einer von uns beiden war ein Arschloch
         G
ich wars nicht
Am
du holst Kaffee bei Starbucks
                                G
mein leben ist ein start-up für dich
Am
Du lebst so euphorisch und ich lebe nur provisorisch
         G
Halb so schlimm
        Dm       Am
sei ein faber im wind

[Verse]
Am
Einer von uns beiden war ein Arschloch
                   G
ich glaube das ist klar
Am                                                      G
an Weihnachten hatte ich kein Geschenk für dich letztes Jahr
Am      
Du du hast mir gesagt, dass du mich magst
             G                    Dm      Am
und ich habe geglaubt und du bist einfach abgehauen

[Chorus]
          C                      E
Und jeder Jäger träumt von einem Reh
      Am                Dm
jeder Winter träumt vom Schnee
                            E
Jede Theke träumt von einem Bier
                                    Am
Warum du Nutte träumst du nicht von mir?

If Im James Dean Youre Audrey Hepburn chords – Sleeping With Sirens Vsion 5

 This is not the acoustic version of the song. 
The song doesn't use a capo but if your voice is deeper than Kellin's, then it's capo 1
For strumming pattern: https://www.youtube.com/watch?v=FZlcV1m-zis. He plays the chords a bit differently but
 the strumming pattern is similar. Change the pattern for the second verse to match the first, if you want.
It might not be 100% accurate but it still sounds similar.

Standard Tuning

Intro:
 Gm Gm 
Stay for tonight
If you want to
I can show you
          E 
What my dreams are made of,
         F# 
As I'm dreaming of your face
            Gm 
I've been away for a long time
Such a long time
                      E 
And I miss you there
                                     F# 
I can't imagine being anywhere else
I can't imagine being anywhere else but here

 Gm Gm 
How the hell did you ever pick me?
                                E 
Honestly, I could sing you a song
                                          F# 
But I don't think words can express your beauty
                  Gm 
It's singing to me

How the hell did we end up like this?
                            E 
You bring out the beast in me
                                   F# 
I fell in love from the moment we kissed
                             Gm 
Since then we've been history

 Gm E E F# 
They say that love is forever
                            Gm 
Your forever is all that I need
        B E 
Please stay as long as you need
                                     F# 
Can't promise that things won't be broken
                               Gm 
But I swear that I will never leave
        B E 
Please stay forever with me

 Gm Gm E 
It goes to show, I hope that you know that you are
What my dreams are made of
 Gm 
Can't fall asleep, can't fall asleep
                                           E 
I lay in my bed awake, in my bed awake at night
As I dream of you
 Gm 
I'll fall in love, you'll fall in love
                                         E 
It could mean everything, everything to me
I can't imagine being anywhere else

 E F# 
They say that love is forever
                            Gm 
Your forever is all that I need
        B E 
Please stay as long as you need
                                     F# 
Can't promise that things won't be broken
                               Gm 
But I swear that I will never leave
        B E 
Please stay forever with me

 E                  
The way that we are
        F# 
Is the reason I stay
    Gm 
As long as you're here with me
   B 
I know I'll be OK

 E                  
The way that we are
        F# 
Is the reason I stay
    Gm 
As long as you're here with me
   B 
I know I'll be OK

 E F# 
They say that love is forever
                            Gm 
Your forever is all that I need
        B E 
Please stay as long as you need
                                     F# 
Can't promise that things won't be broken
                               Gm 
But I swear that I will never leave
        B E 
Please stay forever with me

 E F# 
They say that love is forever
                            Gm 
Your forever is all that I need
        B E 
Please stay as long as you nee

Dear S​​a​​m Im Dead Too You Tabs – Weerd Science

 -------------------------------------------------------------------------------
                        Dear S.A.M. I'm Dead Too You - Weerd Science
-------------------------------------------------------------------------------
:fmongold       
Email:fmongold

. :)

I tabbed it the best I could from this video:


If I did something wrong please feel free to make corrections.

Tuning:Standard (EADgbe)

Main Riff
e|----------------------|
B|----------------------|
G|----------------------|
D|-------9-10---10-9h---|
A|-7-7------------------|
E|-----0----------------|

e|--------------------------------|
B|--------------------------------|
G|--------------------------------|
D|-------12-10--10/9-10h9---------|
A|-7-7--------------------10-9h/7-|
E|-----0--------------------------|

| /  slide up
| \  slide down
| h  hammer-on
| p  pull-off
| ~  vibrato
| +  harmonic
| x  Mute note

I Know Im A Wolf Tabs – Young Heretics

 I Know I'm A Wolf by Young Heretics

Standard tuning
No capo


Basic shapes used during part 1 picking pattern: 
e|-0----0--------------------------------------------------------|
B|-0----0--------------------------------------------------------|
G|-2----2--------------------------------------------------------|
D|-2----0--------------------------------------------------------|
A|-3----3--------------------------------------------------------|
E|---x4----------------------------------------------------------|
(if you use your index finger on the D string, you can use it to fret the B string the last time through)

Chords used during part 2 (strumming): 
    C  D  Asus2  B7
e|--0--2--0------2------------------------------------------------|
B|--1--3--0------0------------------------------------------------|
G|--0--2--2------2------------------------------------------------|
D|--2--0--2------1------------------------------------------------|
A|--3--x--0------2------------------------------------------------|
E|--x--x--x------x------------------------------------------------|


Part 1 Riff:
   Em                      C           D      
e|---------------------------------------------------------------|
B|-----0-----0-----0-----0-----0-----0-----0---1-0---------------|
G|---2-----2-----2-----2-----2-----2-----2-----------------------|
D|-2-----2-----2-----2-----------------0-----0-------------------|
A|-------------------------3-----3-------------------------------|
E|---------------------------------------------------------------|
(play once for each line)


Dear rabbit my legs are getting weak chasing you
The snow fields wouldn't seem so big if you knew

Part 2: (play chord and let ring)
          C
That this blood on my teeth
      D
It is far beyond dry
         Asus2
And I've captured you once
      B7
But I wasn't quite right

       C
So I'm telling you 
     Asus2              (begin riff again)
That you'll be safe with me

Part 1 riff over:
Rabbit my claws are dull now so don't be afraid
I could keep you warm as long as you can just try to be brave

Part 2: (strum chords)
      C
Yes I know I'm a wolf
         D
And I've been known to bite
        Asus2
But the rest of my pack
       B7
I have left them behind
       C
And my teeth may be sharp
         D
And I've been raised to kill
        Asus2
But the thought of fresh meat
      B7
It is making me ill
       C
So I'm telling you
     D     (slow down)
That you'll be safe with . . .

Part 1 riff x4 over:
Me . . .
Ooh . . .
(the last time through the riff changes a little and breaks off abruptly)

Part 1 riff over:
So rabbit please stop looking the other way

Modified ending for Part 1 riff:
e|-------------------------------------------------------0-------|
B|-----0-----0-----0-----0-----0-----0-----0-----0-----0---------|
G|---2-----2-----2-----2-----2-----2-----2-----2-----2-----------|
D|-2-----2-----2-----2-----------------0-----0-----2-------------|
A|-------------------------3-----3-------------------------------|
E|---------------------------------------------------------------|
It's cold out there so why not stay here under my tail

Im Gonna Knock On Your Door chords – Billy Crash Craddock

 G 
I'm gonna knock on your door ring on your bell
 
                    D7 
Tap on your window too

              G C 
If you don't come out tonight when the moon is bright

     G D7 G 
I'm gonna knock and ring and tap until you do



I'm gonna knock on your door call out your name 

                         D7 
Wake up the town you'll see

 G C 
I'm gonna hoo-hoot and howl like a lovesick owl

           G D7 G 
Until you say you're gonna come out with me


            C 
Hey little girl this ain't no time to sleep 

 G 
Let's count kisses instead of counting sheep

 C 
How how can I hold you near 

      A7 D7 
With you up there and me down here


 G 
I'm gonna knock on your door ring on your bell 

                    D7 
Tap on your window too

              G C 
If you don't come out tonight when the moon is bright

     G D7 G 
I'm gonna knock and ring and tap until you do


            C 
Hey little girl this ain't no time to sleep 

 G 
Let's count kisses instead of counting sheep

 C 
How how can I hold you near 

      A7 D7 
With you up there and me down here


 G 
I'm gonna knock on your door ring on your bell 

                    D7 
Tap on your window too

              G C 
If you don't come out tonight when the moon is bright

     G D7 G 
I'm gonna knock and ring and tap until you do

Im Blue chords – Eiffel 65 Vsion 3

 Capo 3

  D C       
Yo, listen up here's a story
 Am Em D 
About a little guy that lives in
 C Am 
a blue world
      Em D C Am 
And all day and all night and everything he sees
       Em D 
Is just blue like him 
  C               
inside and outside
 Em D C 
Blue is his house with a blue little 
 Am Em 
window, and a blue corvette
  D Am Em          
And everything is blue for him, and himself
 D C Am 
And everybody around, 'cause he ain't 
 Em D C  (hold)
got nobody to listen.

        Em                          
I'm blue, da ba dee da ba die
da ba dee da ba, 
da ba dee da ba die 
da ba dee da ba, 
da ba dee da ba die 
da ba dee da ba
da ba dee da ba die
            D C 
I'm blue, da ba dee da ba die
        Am 
da ba dee da ba, 
        Em 
da ba dee da ba die 
        D  
da ba dee da ba, 
 C Am 
da ba dee da ba die 
 Em D  
da ba dee da ba
 C Am 
da ba dee da ba die

C, Em, D 
C, Am, Em
D, C, Am
Em, D, C

 Bm D F G   
I have a blue house with a blue
 Bm D F G        
window. Blue is the color of all that I wear.
 Bm D F G   
Blue are the streets and all the trees are too. 
 Bm D                
I have a girlfriend, 
    C G 
and she is so blue. 
 Bm D F G   
Blue are the people here that walk around,
 Bm D F G   
Blue like my corvette, it's standing outside. 
 Bm D F G   
Blue are the words I say and what I think. 
 Bm D  (hold) 
Blue are the feelings that live inside me.

Chorus (x2)

 Bm D F G   
I have a blue house with a blue
 Bm D F G        
window. Blue is the color of all that I wear.
 Bm D F G   
Blue are the streets and all the trees are too. 
 Bm D                
I have a girlfriend, 
    C G 
and she is so blue. 
 Bm D F G   
Blue are the people here that walk around,
 Bm D F G   
Blue like my corvette, it's standing outside. 
 Bm D F G   
Blue are the words I say and what I think. 
 Bm D  (hold) 
Blue are the feelings that live inside me.

Chorus (x2)

Guess Im Dumb chords – Glen Campbell Vsion 2

 Guess I'm Dumb
Glen Campbell 
written by Brian Wislon and Russ Titelman
preformed on 1965 Shindig show
was released on Capitol Records Single 45

Intro   D# C# D# 

Verse 1

 D# C# D# C# 
The way I act don't seem like me
 D# C# G# Fm7 
I'm not on top like I used to be
 Cm7 Gm 
But I give in when I know I should be strong
 Cm Fm 
I still give in even though I know it's wrong, know it's wrong
   Fm7 G# C# Bbm Fm 
I guess I'm dumb but I don't care

Verse 2

 D# C# D# C# 
And breaking off wasn't hard to do
 D# C# G# Fm7 
But I couldn't stay away from you
 Cm7 G#m Fm7 
I feel love but not the way I did before ( guess I'm Dumb)
 Cm Fm 
This time, girl, has got to be forever more, ever more
   Fm7 G# C# Bbm Fm  
I guess I'm dumb but I don't care

 D# C# D# C# F# C#m F# Bb 

Verse 3
  
 D# C# D# C# D# 
And baby since we've been apart    (guess I'm Dumb)
 D# C# G# Fm7 
Baby I've found I had a heart
 Cm7 G#m 
I couldn't let go even if I wanted to
 Cm Fm 
And You must know baby now it's only you, only you
   Fm7 G# C# Bbm Fm D# 
I guess I'm dumb but I don't care
 C# D# C# D#  
Guess I'm dumb   Guess I'm dumb
 C# D# C# D#  
Guess I'm dumb   Guess I'm dumb


flyinglibra51
God Bless Glen Travis Campbell 

Im Not There chords – Bob Dylan V4

 ---------------------------------------------------------------------------
                  I’m Not There – Bob Dylan
---------------------------------------------------------------------------
: maguri
Tuning: Standard

Bob Dylan 
I’m Not There (1967)
(Dylan)

From: "The Bootleg Series Vol. 11: The Basement Tapes"

---------------------------------------------------------------------------

capo: 4th fret
play: G
key: B

For original chords transpose this tab +4.

---------------------------------------------------------------------------

BASIC RIFF
   G C/G G C/G G 
  1 + 2 + 3 + 4 +  
e|3---3---3-------|
B|0---0---1-0-1-0-|
G|0---0---0-0-0-0-|
D|0---0---2-0-2-0-|
A|----------------|
E|3-------3-------|

---------------------------------------------------------------------------
CHORDS

          E-A-D-G-B-e
C/G       3-x-2-0-1-3

---------------------------------------------------------------------------


VERSE 1
 G 
Things are crashing down
      G 
She's all too tight
      F 
In my neighborhood
               Am 
She cried both day and night
             G C/G G C/G G 
I know it because it was there


VERSE 2
        G C/G G  
It's a milestone
           F 
But she's down on her luck
         Am 
And the day makes her lonely
        G C/G C C/G G G C/G G  
But to make it hard to buck, now and then


CHORUS 1
   C 
I believe that she'd stop him
        Em 
If she would start to care
     F 
I believe that she'd look upon
     C/G C 
His side that used to care
         Em 
And I'd go by the Lord
                F 
Anywhere she's on my way
               G C/G G C/G G  
But I don't belong there


VERSE 3
      G  
No I don't belong to her
           F 
I don't belong to anybody
          Am 
She's my Christ-forsaken angel
               G C/G G 
But she don't hear me cry


VERSE 4
         G 
She's a lone-hearted mystic
         F 
And she can't carry on
          Am 
When I'm there, she's all right
           G C/G G C/G G 
But she's not when I'm gone


CHORUS 2
        C 
Heaven knows that the answer
           Em 
She’s not calling no one
           F 
She's the way, forsaken beauty
           C 
For she's mine, for the one
       C 
And I lost her, hesitation
        Em 
By temptation as it runs
         Fmaj7  
But she don't holler me
             G C/G G C/G G 
But I'm not there, I'm gone


VERSE 5
          G 
Now I'll cry tonight
        F 
Like I cried the night before
         Am 
And I'm knees on the hassle
          G 
But I'll dream about the door


VERSE 6
         G 
It's so long, she's forsaken
        F 
By her faith, worse to tell
          Am 
It don't have condonation
     G C/G G C/G G 
She smiles, fare thee well


CHORUS 3
          C 
Now when I treat to leave 'er
       Em 
I was born to love her
         F 
But she knows that the kingdom waits
    C 
So high above her
       C 
And I run a better race
          Em 
But i

Barbara Mason – Yes Im Ready chords

 Yes I'm Ready:Barbara Mason.
#2 on R&B Charts and #5 on BB Hot 100
on ARCTIC Records in 1965.


INTRO:  Abm7 Gb Abm7 Gb Abm7 Gb Gb Abm7 Gb Abm7 
(Are you ready?)..Yes, I'm ready..
          Abm7 Gb Abm7 
(Are you ready?)..yes, I'm ready.

#1.
 Gb Abm7 Gb Bbm Abm7 Gb 
I don't even know how  to love you..just the 
     B Gb 
way you want me to.
 Abm7 Ebm 
But I'm ready (ready) to learn (to learn.)
          Abm7 Ebm Bbm 
Yes, I'm ready (ready) to learn (to learn.)
    Abm7 Bbm Abm7 Bbm Abm7 B 
To fall in  love, to fall in love, to fall 
 Db Abm7 Gb B 
in love with you.....

#2.
 Gb Abm7 Gb Bbm Abm7 B  
I don't even know how  to hold your hand....
         Gb B Gb 
just to make you understand.
         Abm7 Bbm 
But I'm ready (ready) to learn (to learn.)
          Abm7 Bbm 
Yes, I'm ready (ready) to learn (to learn.)
    Abm7 Bbm Abm7 Bbm Abm7 
To hold your hand, make you understand.
         Bbm Abm7 Db Gb 
To hold your hand, right now.

#3.
         Abm7 Bbm Abm7 Gb 
I don't even know how to kiss your lips..(kiss 
      Abm7 Bbm B Abm7 Db 
your lips) at a moment like this.
     Gb Abm7 Gb Bbm Abm7 
But I'm going to learn how to do-oo-oo-oo...all 
     Gb Db Gb 
the things you want me to.

CHORUS:
  Gb Abm7 Bbm 
(Are you ready?)..Yes, I'm ready..
  Db Abm7 Bbm 
(Are you ready?)..yes, I'm ready.
 Abm7 Bbm Abm7 Bbm Abm7 Bbm 
To   fall in love, to fall in  love, to fall in 
 Abm7 Db Gb 
love, right now.

OUTRO:
  Gb Abm7 Gb Abm7 
(Are you ready?)..Yes, I'm ready..
  Db Abm7 Gb Abm7 
(Are you ready?)..yes, I'm ready.
  Db Abm7 Gb Abm7 
(To kiss me?)..Yes, I'm ready..(Fade.)



A sixties smash from Kraziekhat.

Im Restless chords – Jennifer Warnes

 I'm Restless 
Jennifer Warnes


Intro   C B G A Dm G C G C B G A Dm G C   

Verse 1

 G C Cmaj7 F         
There are words, to say, but I swear 
              G G7 C 
I just can't find them.
 Cmaj7 F Dm 
Though in my heart I know, 
    G C Em Dm F G 
fools, May hesitate, from the memories behind them.
 Am C Cmaj7 Dm 
While the angels laugh and say, 
    G C 
I told you so.

Chorus 1

 G C A A7 Dm G 
Oh,   I'm restless, darling I'm restless.
  G7 C C7 F Fm 
Waiting for you, to look my way.
         C Cmaj7 F Dm G C C7 F C   
I don't think that I can wait,     another day.

Verse 2

    G C Em G F G G7 C 
So I cry,  when the feeling overtakes me.
                 Em G F G G7 C 
'Cause the love I give seems so little in your eyes.
             Cmaj7 F G G7 Am 
The test of time, always breaks me.
              C Dm G C   
With nothing tried and nothing realized.

Chorus 2

 G C A A7 Dm G 
Oh, I'm restless, darling I'm restless.
     G7 C C7 Dm Fm 
Waiting for you, to look my way.
         C Cmaj7 F Dm G C C7 Gm A6 
I don't think that I can wait,   another day.

Verse 3

 F G Em A A7 Dm G G7 C C7 Gm     
No man is an island,    but you do that very well.
 Am Fm G C Am Dm G G7 
It sure takes a fool to find another.
       C Cmaj7 F Dm G C 
But I believe for every heart that's broken.
           Em Am F G 
There's a stranger's smile to put it on the mend.
 G7 C Cmaj7 F G G7 
Then, those old familiar feelings, seldom spoken.
 Am C Dm G C    
Out of nowhere,    come back again.

Outro

 G C A7 Dm G 
And I'm restless, darling I'm restless.
    G7 C C7 Dm Fm 
Waiting for you, to look my way.
         C Am F G Em A 
I don't think that I, the hour is getting late,
         Dm G C B Em G A Fm G G7 C 
I can't wait  another day

flyinglibra51
God Bless Glen Travis Campbell

Heaven Knows Im Miserable Now Tabs – The Smiths V4

 Heaven Knows...  (capo 2nd fret) – figure out the rhythm by listening to the song

    Play these first four with tremolo bar, then alternate strumming between the following open chords
     F#maj7     Dmaj7       C#m       B       open B                 open C#
F#|---8-----------3----------2--------0-------0-0-0-0-0--0-0-0-0-0---0-0-0-0-0--0-0-0-0-0--
C#|---10----------5----------3--------2-------5-5-5-0-0--5-5-5-5-0---7-7-7-0-0--7-7-7-7-0--
A |---9-----------4----------2--------2-------6-6-6-6-6--6-6-6-6-6---8-8-8-8-8--8-8-8-8-8--
E |---10----------5----------4--------2-------7-7-7-7-7--7-7-7-7-7---9-9-9-9-9--9-9-9-9-9--
B |---8-----------3----------2--------0----------------------------------------------------
F#|----------------------------------------------------------------------------------------


Verse 1 and 3
       F#maj7                             D#m                      G#m
F#|------7------7---7----7----7---7---7----9---9---9---9---9---9----9----9----9------------
C#|------9------9---9----9----9---9---9----9---9---9--12--12---9---10---10----9------------
A |------8------8---8----8----8---8---8----9---9---9---9---9---9----9----9----9------------
E |------9------9---9----9----9---9---9---11--11--11--11--11--11---11---11---11------------
B |------7------7---7----7----7---7---7----------------------------------------------------
F#|----------------------------------------------------------------------------------------

         B          slide to  C#                  Third verse, do this instead:
F#|------0----0----0----0--/--0------0--------|--------------------------------------------
C#|------5----5----5----5--/--7------0--------|--------5---------------7-------------------
A |------6----6----6----6--/--8------8--------|-----------6---------------8----------------
E |------7----7----7----7--/--9------9--------|----7---------7---7/9---------9-------------
B |-------------------------------------------|--------------------------------------------
F#|-------------------------------------------|--------------------------------------------


       F#maj7                             D#m                     G#m
F#|------7------7---7----7----7---7---7----9---9---9---9---9--9----9----9----9-------------
C#|------9------9---9----9----9---9---9----9---9---9--12--12--9---10---10----9-------------
A |------8------8---8----8----8---8---8----9---9---9---9---9--9----9----9----9-------------
E |------9------9---9----9----9---9---9---11--11--11--11--11--11--11---11---11-------------
B |------7------7---7----7----7---7---7----------------------------------------------------
F#|----------------------------------------------------------------------------------------


         B                               
F#|------0----0----0----0----0----0---------
C#|------5----5----5----5----5----0---------
A |------6----6----6----6----6----6---------
E |------7----7----7----7----7----7---------
B |-----------------------------------------
F#|-----------------------------------------


The Chorus: “In my life...” 
       F#maj7         B          slide to  C#
F#|------7------7-----0----0----0----0--/--0------0---------------------------------------
C#|------9------9-----5----5----5----5--/--7------0---------------------------------------
A |------8------8-----6----6----6----6--/--8------8---------------------------------------
E |------9------9-----7----7----7----7--/--9------9---------------------------------------
B |------7------7-------------------------------------------------------------------------
F#|---------------------------------------------------------------------------------------

“Why do I smile...”
       F#maj7        C#               B                  A#m
F#|------7------7-----0----0----0--/--0----0-----0--------4---4--4--4---4-----------------
C#|------9------9-----7----7----7--/--5----5-----5--------4---4--4--4---4-----------------
A |------8------8-----8----8----8--/--6----6-----6--------4---4--4--4---4-------

Im Not The Only One Chords – Sam Smith

Chords used:                            
F  133211
A  002220
Dm 000231
Bb 113331
C  032010

Intro
F A Dm Bb
F A Dm Bb
F A Dm Bb
F C F

[Verse 1]
F   A             Dm         Bb
   You and me we made a vow
F       A             Dm     Bb
   For better or for worse
F     A                 Dm          Bb
   I can't believe you let me down
          F              C      F
But the proof is in the way it hurts
F       A                  Dm           Bb
   For months on end I've had my doubts
F     A           Dm       Bb
   Denying every tear
F     A                Dm         Bb
   I wish this would be over now
           F                C        F
   But I know that I still need you here

[Chorus]
    F A       Dm   Bb
You say I'm crazy
       F                  A               Dm    Bb
Cause you don't think I know what you've done
     F A      Dm      Bb
But when you call me baby
    F               C   F
I know I'm not the only one

[Verse 2]
F          A          Dm       Bb
   You've been so unavailable
F       A           Dm         Bb
   Now sadly I know why
F        A             Dm      Bb
   Your heart is unobtainable
        F          C             F
Even though Lord knows you have mine

[Chorus]
    F A       Dm   Bb
You say I'm crazy
       F                  A               Dm    Bb
Cause you don't think I know what you've done
     F A      Dm      Bb
But when you call me baby
    F               C   F
I know I'm not the only one

[Bridge]
Bb                        F
   I have loved you for many years
 A                     Dm
Maybe I am just not enough
Bb                            F
   You've made me realise my deepest fear
    A                  Bb / C
By lying and tearing us up

[Chorus]
    F A       Dm   Bb
You say I'm crazy
       F                  A               Dm    Bb
Cause you don't think I know what you've done
     F A      Dm      Bb
But when you call me baby
    F              C    F
I know I'm not the only one

Im In Love With The Coco Acoustic chords – Ed Sheeran

 Ed Sheeran
I'm In Love With The CoCo (OT Genesis cover)

This is a performance from BBC Radio 1Xtra and can be seen in the following video:


It's pretty easy to play this acoustic version. You just have to find the right rhythm. 3 Chords are used
throughout the whole song ( Em C D ), although you can use them a bit differently to change up the song a
little bit ( Em7 C7 D ) or ( Em9 C9 D ). Please be kind with your rating as this is my first Tab. Enjoy!! :D


Capo 3

 Em C Em C D 

(Hook)

 Em C Em C 
   I'm in love with the coco
 Em C Em C 
   I'm in love with the coco
 Em C Em C 
   I got it for the low low
 Em C Em C D 
   I'm in love with the coco


 Em C Em C 
   I'm in love with the coco...



(Verse 1)

 Em C Em C 
   Hit my plug, that's my cholo
 Em C Em C 
   'Cause he got it for the low low
 Em C Em C 
   If you snitchin' I go loco
 Em C Em C   
   Hit you with that treinta ocho
 Em C Em C 
   Thinkin' that I'm solo
 Em C Em C 
   Fifty deep, they're like "oh no"
 Em C Em C 
   Heard the feds takin' photos
 Em C Em C 
   I know nothing, fuck the po' po'


(Refrain)

 Em C Em 
   Bakin' soda, I got bakin' soda
 Em C Em 
   Bakin' soda, I got bakin' soda
 Em C Em 
   Whip it through the glass nigga
 Em C Em 
   I'm blowin' money fast, nigga


(Hook)

 Em C Em C 
   I'm in love with the coco...
 
  
 Em C Em C 
   I'm in love with the coco...


(Verse 2)

 Em C Em C    
   36, That's a kilo
 Em C Em C 
   Need a brick, miss my free throw
 Em C Em C 
   I'm in love, just like Ne-Yo
 Em C Em C 
   Bustin' bustin', now he Neo
 Em C Em C 
   Free my homies, fuck the C.O.
 Em C Em C 
   Fuck the judge, fuck my P.O.
 Em C Em C 
   All this coke like I'm Nino
 Em C Em C 
   Water whip like I'm Nemo


(Refrain)

 Em C Em 
   Bakin' soda, I got bakin' soda


(Hook)

 Em C Em C 
   I'm in love with the coco...
 
  
 Em C Em C 
   I'm in love with the coco...

Im Confessin chords – Ricky Nelson

 I'm Confessin':Ricky Nelson.
Album - Ricky - #1 on BB Hot 200 on 
IMPERIAL Records in 1957. 

INTRO:  Eb Cm Eb 

#1.
 Dm7 G Eb 
I'm confessin' that I love you, tell me 
        G C 
do you love me, too?
 F Bb Dm7 Eb C 
I'm confessin' that I need you, honest I do.
  F Fm Eb 
(need you every moment.)

BRIDGE:SPOKEN:
 B Eb A Eb 
In your eyes I read such strange things.
          Ab C 
But your lips deny they are true.
 F 
Will your answer really change things, making 
    Eb Ab Eb 
me blue..(making me blue.)

#2.
 Fm Eb Bb Eb 
I'm afraid someday you'll leave me.
 Ab G 
Saying can't we still be friends?
 F Cm Fm 
If you go you'll grieve me, all in life on 
 Ab Bb 
you depends.

#3.
 Eb G Eb 
Am I guessing that you love me, dreaming 
               Cm C 
dreams of you in vain?
 F Fm Bb Eb 
I'm confessin' that I love you, over again.
  Ab Eb 
(Over again.)

#4.
 Bb Eb Bbm Eb 
I'm afraid someday you'll leave me.
 Ab Eb Ab G 
Saying can't we still be friends?
 F Cm C F 
If you go you know you'll grieve me,
 Fm Bb 
all in life on you depends.
              B E 
(Baa-baa-baa-baa-baa-baa-baa-baa)

OUTRO:
 E Eb E 
Am I guessing that you love me, dreaming 
               Eb Db 
dreams of you in vain?
 Gb B E D 
I'm confessin' that I love you, over again-aaa-
     Db 
aaa-gain
     E Gb E 
Oh, I'm confessin' that I love you over again.
  A E 
(Over again.)



A fifties smash from Kraziekhat.


Im Moving On Tabs – Hank Snow

 I'M MOVING ON

As recorded by Hank Snow
(From the 1950 Album COUNTRY CLASSICS)

Words and Music by Hank Snow

 Slowhand


Gtr I (E A D G B E) - 'Acoustic Guitar 1'
Gtr II (E A D G B E) - 'Acoustic Guitar 2'
Gtr III (E A D G B E) - 'Acoustic Guitar 3'


   Intro
    Q=194(8=s8)
    D
   4/4
    Gtr I
    Q  E E E E E E   Q  E E E E E E   Q  E E E E E E   Q  E E E E E E
||-----2-2-2-2-2-2-|----2-2-2-2-2-2-|----2-2-2-2-2-2-|----2-2-2-2-2-2---||
||o----3-3-3-3-3-3-|----3-3-3-3-3-3-|----3-3-3-3-3-3-|----3-3-3-3-3-3--o||
||-----2-2-2-2-2-2-|----2-2-2-2-2-2-|----2-2-2-2-2-2-|----2-2-2-2-2-2---||
||--0--------------|-0--------------|-0--------------|-0----------------||
||o----------------|----------------|----------------|-----------------o||
||-----------------|----------------|----------------|------------------||


   1st - 7th Verses
    $
    $$
    D
    Q  E E E E E E   Q  E E E E E E
||-----2-2-2-2-2-2-|----2-2-2-2-2-2-|
||o----3-3-3-3-3-3-|----3-3-3-3-3-3-|
||-----2-2-2-2-2-2-|----2-2-2-2-2-2-|
||--0--------------|-0--------------|
||o----------------|----------------|
||-----------------|----------------|


                  2/4       4/4
  Q  E E E E E E   E E E E   Q  E E E E E E
|----2-2-2-2-2-2-|-2-2-2-2-|----2-2-2-2-2-2-||
|----3-3-3-3-3-3-|-3-3-3-3-|----3-3-3-3-3-3-||
|----2-2-2-2-2-2-|-2-2-2-2-|----2-2-2-2-2-2-||
|-0--------------|---------|-0--------------||
|----------------|---------|----------------||
|----------------|---------|----------------||


 Chorus
  G                                 D
  Q  E E E E E E   Q  E E E E E E   Q  E E E E E E
|----3-3-3-3-3-3-|----3-3-3-3-3-3-|----2-2-2-2-2-2-|
|----0-0-0-0-0-0-|----0-0-0-0-0-0-|----3-3-3-3-3-3-|
|----0-0-0-0-0-0-|----0-0-0-0-0-0-|----2-2-2-2-2-2-|
|----0-0-0-0-0-0-|----0-0-0-0-0-0-|-0--------------|
|----------------|----------------|----------------|
|-3--------------|-3--------------|----------------|


                   A
  Q  E E E E E E   Q  E E E E E E
|----2-2-2-2-2-2-|----0-0-0-0-0-0---|
|----3-3-3-3-3-3-|----2-2-2-2-2-2---|
|----2-2-2-2-2-2-|----2-2-2-2-2-2---|
|-0--------------|----2-2-2-2-2-2---|
|----------------|-0----------------|
|----------------|------------------|


                                To Dbl. Coda           To Coda
                             D
 2/4       4/4
  E E E E   Q  E E E E E E   Q  E E E E E E    Q  E E E E E E
|-0-0-0-0-|----0-0-0-0-0-0-|----2-2-2-2-2-2--|----2-2-2-2-2-2----||
|-2-2-2-2-|----2-2-2-2-2-2-|----3-3-3-3-3-3--|----3-3-3-3-3-3---o||
|-2-2-2-2-|----2-2-2-2-2-2-|----2-2-2-2-2-2--|----2-2-2-2-2-2----||
|-2-2-2-2-|----2-2-2-2-2-2-|-0---------------|-0-----------------||
|---------|-0--------------|-----------------|------------------o||
|---------|----------------|-----------------|-------------------||


 Fiddle Solo
  D
  Q  E E E E E E   Q  E E E E E E   Q  E E E E E E   Q  E E E E E E
|----2-2-2-2-2-2-|----2-2-2-2-2-2-|----2-2-2-2-2-2-|----2-2-2-2-2-2--|
|----3-3-3-3-3-3-|----3-3-3-3-3-3-|----3-3-3-3-3-3-|----3-3-3-3-3-3--|
|----2-2-2-2-2-2-|----2-2-2-2-2-2-|----2-2-2-2-2-2-|----2-2-2-2-2-2--|
|-0--------------|-0--------------|-0--------------|-0---------------|
|----------------|----------------|----------------|-----------------|
|----------------|----------------|----------------|-----------------|


  G
 4/4              2/4       4/4
  Q  E E E E E E   E E E E   Q  E E E E E E
|----3-3-3-3-3-3-|-3-3-3-3-|----3-3-3-3-3-3-|
|----0-0-0-0-0-0-|-0-0-0-0-|----0-0-0-0-0-0-|
|----0-0-0-0-0-0-|-0-0-0-0-|----0-0-0-0-0-0-|
|----0-0-0-0-0-0-|-0-0-0-0-|----0-0-0-0-0-0-|
|----------------|---------|----------------|
|-3--------------|---------|-3--------------|


  D
  Q  E E E E E E   Q  E E E E E E
|----2-2-2-2-2-2-|----2-2-2-2-2-2---|
|----3-3-3-3-3-3-|----3-3-3-3-3-3---|
|----2-2-2-2-2-2-|----2-2-2-2-2-2---|
|-0--------------|-0----------------|
|----------------|------------------|
|----------------|------------------|


                                                        D.S. al Coda

Annie Im Not Your Daddy chords – Kid Creole And The Coconuts

 ...ANNIE, I'M NOT YOUR DADDY... by Kid Creole and the Coconuts
-------------------------------...............................

*from 'Tropical Gangsters' (1982)*


Intro:

 Am 

Verse 1:

      E B E A E C#m D 
They say that all is fair in love and war, and child, be-lieve it.
      E B E A E C#m D 
When Mama stayed in Saint Tro-pez, she had a fall or two.

Bridge 1:

 A B E C#m D 
 And I'm telling it to you straight,
        Am 
So you don't have to hear it in another way.

Chorus 1:

    E A B A 
Oh Annie,
              E A B A 
I'm not your Daddy.
    E A B A 
Oh Annie,
              E A B A 
I'm not your Daddy.

Interlude:

 E   A,  E Am 

Verse 2:

      E B E A E C#m D 
They say that out of sight is out of mind, and child, be-lieve it.
      E B E A E C#m D 
Your Mama was in search of love, but all she got was used.

Bridge 2:

 A B E C#m D 
 And I'm telling it to your face,
        Am 
So you don't have to hear it in another place.

 Am 
 (Break it to me gently now; don't forget I'm just a child).

Chorus 2:

    E A B A 
Oh Annie,
              E A B A 
I'm not your Daddy, (Mama's baby's, Papa's baby).
    E A B A 
Oh Annie,
              E A B A 
I'm not your Daddy, (Mama's baby's, Papa's baby).

        E A E Am 
See if I was in your blood, then you wouldn't be so ugly.

Interlude:

 E   B,  E   A,  E C#m D  (x2)

Bridge 3:

 A B E C#m D 
 Yes, I'm telling it to you straight,
        Am 
So you don't have to hear it in another way.

 Am 
 (Break it to me gently now; don't forget I'm just a child).

Chorus 3:


    E A B A 
Oh Annie,
              E A B A 
I'm not your Daddy, (Mama's baby's, Papa's baby).
    E A B A 
Oh Annie,
              E A B A 
I'm not your Daddy, (Mama's baby's, Papa's baby).

Outro:

 E   A,  B A 

(Repeat to Fade)


CHORD DIAGRAMS:
---------------

    Am E B A C#m D 

 EADGBE  EADGBE  EADGBE  EADGBE  EADGBE  EADGBE
 577555  x76454  799877  577655  x46654  x57775


 Joel from cLuMsY, Bristol, England, 2014 (clumsyband@hotmail.com)

Im Alive chords – The Wild Feathers

 Artist- The Wild Feathers
Song- I'm Alive

Intro Riff:
    A G D 
e--------------------3---------2-------------------|
B--------------------3---------3-------------------|
G--------------------0---------2-------------------|
D--2--2--------2-----0---------0-------------------|
A--0--0--3--4--0-----2-----------------------------|
E--------------------3-----------------------------|


A                                   Riff
Don't drag me down, just set me free
A                                           Riff
I was thrown off the rails of a dead-end street
 E 
I'm a thousand miles from anywhere
 E 
Kicked to the curb, but I don't care

 
 D E A G# F#m 
I'm alive, I guess I'm doin' alright
 D E A 
I'm alive tonight
 D E A G# F#m 
I'm alive, I guess I'm doin' just fine
 D E A    Riff
I'm alive tonight

 
A                                 Riff
I ran away with a new pair of shoes
A                                     Riff
And saw it from a different point of view
 E 
Got me blowin' around like a hurricane
 E 
Kicked through the doors and the window pane

 
 D E A G# F#m 
I'm alive, I guess I'm doin' alright
 D E A 
I'm alive tonight
 D E A G# F#m 
I'm alive, I guess I'm doin' just fine
 D E A    Riff
I'm alive tonight


Solo Chords: F#m, A, E    F#m, D, E    Riff 4x   D

 
 D E A G# F#m 
I'm alive, I guess I'm doin' alright
 D E A 
I'm alive tonight
 D E A G# F#m 
I'm alive, I guess I'm doin' just fine
 D E A    Riff
I'm alive tonight

Im Not Part Of Me Tabs – Cloud Nothings

 -------------------------------------------------------------------------------
                             Im Not Part of Me - Cloud Nothings
-------------------------------------------------------------------------------
: Asmus Gregersen

Tuning: Standard

The tab is a little incomplete. I haven't tabbed the outro, and also it says nothing about the rhythm.
It would be nice if someone else could finish it. It is based on some live videos from youtube,
including some acoustic versions which are actually really nice. 

Intro
e|-----------------------------------|
B|-----------------------------------|
G|-----------------------------------|
D|-6--8-3--5-------------------------| x2 
A|-6--6-4--4-------------------------|
E|-4--6-4--4-------------------------|

Verse 
e|-----------------------------------|
B|-----------------------------------|
G|------8---5-6-5-5------8--5-6-8----|      Tjek opgang her.
D|-6----8---6-6-6-8---3--8--6-6-6----| x2 
A|-6----6---x-x-x-x---3--6--x-x-x----|
E|-4----6---4-4-4-4---1--6--4-4-4----|

Bridge 
e|-----------------------------------|
B|-9----9---9---------8---9-8--------|
G|-x----12--10--------x---x-x--------| x3
D|-10---10--10--------8---8-8--------|
A|-8----8---8---------6---6-6--------|
E|-----------------------------------|


e|-----------------------------------| 
B|-9---9s8---6-----------------------|
G|-x---x-----6-----------------------|
D|-10--8-----6-----------------------|
A|-8---6-----4-----------------------|
E|-----------------------------------|

e|-----------------------------------|
B|-9---------------------------------|
G|-10------8-------------------------|
D|-10------8-------------------------| x 3 
A|-8-------6-------------------------|
E|-8-------6-------------------------|

e|-----------------------------------| 
B|-9---9s8---6-----------------------|
G|-x---x-----6-----------------------|
D|-10--8-----6-----------------------|
A|-8---6-----4-----------------------|
E|-8---6-----------------------------|

Pre chorus
e|-----------------------------------|
B|-----------------------------------|
G|------------8--6-------------------|
D|-6---6---3--8--6-------------------|
A|-6---4---3--6--4-------------------|
E|-4---4---1-------------------------|

e|-----------------------------------|
B|-----------------------------------|
G|---------10 -8--6------------------| On the last chord: add some dissonance (dont know which note...)
D|-6---6---10--8--6------------------|
A|-6---4---8- -6--4------------------|
E|-4---4-----------------------------|

Chorus 
e|-----------------------------------|
B|-----------------------------------|
G|--------6-----------8--------------|
D|-8------6-----6-----8--------------|
A|-8------4-----6-----6--------------| x2
E|-6------------4--------------------|

e|-----------------------------------|
B|-----------------------------------|
G|--------6-5-----------8------------|
D|-8-10---6-6---6-8---8-8------------|
A|-8-8----4-4---6-6---6-6------------| x2
E|-6-6----------4-4--(6)-------------|

e|-----------------------------------|
B|-----------------------------------|
G|(10)-(10)--------------------------|
D|-11---12---------------------------|
A|-11---11---------------------------|
E|-9----9----------------------------|

Outro 

************************************

| /   slide up
| \   slide down
| h   hammer-on
| p   pull-off
| ~   vibrato
| +   harmonic
| x   Mute note
| b   Bend
| pb  Pre-bend
| br  Bend release
| pbr Pre-bend release
| brb Bend release bend

************************************

Im Your Captain chords – Grand Funk Railroad V2

 A Gadd9 A Gadd9 
Everybody, listen to me
     A Gadd9 A Gadd9 
And return me, my ship
          A Gadd9 A Gadd9 
I'm your captain, I'm your captain
            A Gadd9 A Gadd9 
Though I'm feeling, mighty sick

           A Gadd9 A Gadd9 
I've been lost now, days uncounted
           A Gadd9 A Gadd9 
It's been months since, I've seen home
         A Gadd9 A Gadd9 
Can you hear me, can you hear me
    A Gadd9 A Gadd9 
Or am I, all alone

          A Gadd9 A Gadd9 
If you return me, to my home port
        A Gadd9 A Gadd9 
I will kiss you, mother earth
         A Gadd9 A Gadd9 
Take me back now, take me back now
        A Gadd9 A Gadd9 
To the port of   my birth

 A Gadd9 A Gadd9 Am F Am F 
Am i in my cabin dreaming, or are you really scheming
 Am F C E E7 
To take my ship away from me
 Am F Am F 
You'd better think about it, I just can't live without it
 Am F C E E7 
So please don't take my ship away from me

 A Gadd9 A Gadd9 A Gadd9 A Gadd9 A Gadd9 A Gadd9 
I can feel the hand, of a stranger
          A Gadd9 A Gadd9 
And it's tightening, round my throat
        A Gadd9 A Gadd9 
Heaven help me, heaven help me
           A Gadd9 A Gadd9 
Take this stranger, from my boat

          A Gadd9 A Gadd9 
I'm your captain, I'm your captain
            A Gadd9 A Gadd9 
Though i'm feeling, mighty sick
      A Gadd9 A Gadd9 
Everybody, listen to me
       A Gadd9 A Gadd9 
And return me,   my ship
         A Gadd9 
Im your captain, yeh, yeh, yeh, yeh
         A Gadd9 
Im your captain, yeh, yeh, yeh, yeh
         A Gadd9 
Im your captain, yeh, yeh, yeh, yeh
         A Gadd9 
Im your captain, yeh, yeh, yeh, yeh

outro
 A G 
I'm getting closer to my home
 A G 
I'm getting closer to my home
 A G 
I'm getting closer to my home
 A G 
I'm getting closer to my home (repeat till end)