Tag: Interlude

Gravel Interlude Tabs by Mixtapes

 Mixtapes
Gravel (Interlude)
Ordinary Silence

E---------------------------------|-3~
B---------------------------------|-3~
G-----0-------0-------0-------0---|-0~
D---0---0---0---0---0-------0---0-|---
A-2-------3-------0---------------|---
E-----------------------3---------|---

we used to ride our bikes through that old subdivision
when it wasn't yet built we would waste our days
now it's all built up and the houses look the same
but honestly i think that's ok
and if the rain comes down i won't be whining
i can stay inside with the windows open
we can go outside and look up to the sky
sometimes i'm just happy that i'm alive
sometimes i'm just happy that i'm alive

Questions?
Email at cory.roesch

All Souls Days Tabs by Unwound

 Artist: Unwound
Song: "All Souls Day"
 New Plastic Ideas (1994)



Tuning: Standard



Intro:
e|-0----------------------------------------------|
B|-0-----------------------0----------------------|
G|-5-----------------------4----------------------|
D|-x----------------------------------------------|
A|-0----------------------------------------------|
E|------------------------------------------------|
+
e|----------------------------------0-------------|
B|-3-----5--------3-----------3-------------------|
G|-5-----------------5--0--------0----------------|
D|-------------------------4----------------------|
A|------------------------------------------------|
E|------------------------------------------------|



Breakdown:
e|------------------------------------------------|
B|------------------------------------------------|
G|-2-0-0-2-0-0-2-0-0-2-0-0-2-0-0-2-0-0-2-0-0-2-0-0|
D|-2-0-0-2-0-0-2-0-0-2-0-0-2-0-0-2-0-0-2-0-0-2-0-0|
A|-0-x-x-0-x-x-0-x-x-0-x-x-0-x-x-0-x-x-0-x-x-0-x-x|
E|---3-3---3-3---3-3---3-3---3-3---3-3---3-3---3-3|



Interlude:
e|------------------------------------------------|
B|------------------------------------------------|
G|-8--8--x--8--8--x--8--8--x--8--8--x--8--8--x--8-|
D|-7--7--x--7--7--x--7--7--x--7--7--x--7--7--x--7-|
A|-0--0--x--0--0--x--0--0--x--0--0--x--0--0--x--0-|
E|------------------------------------------------|
+
e|------------------------------------------------|
B|------------------------------------------------|
G|-8--x--8--8--x--8--8--x--8--8--x--8--8--x--8--8-|
D|-7--x--7--7--x--7--7--x--7--7--x--7--7--x--7--7-|
A|-0--x--0--0--x--0--0--x--0--0--x--0--0--x--0--0-|
E|------------------------------------------------|
+
e|------------------------------------------------|
B|------------------------------------------------|
G|-x--8--8--x--8--8--x--8--8--x--8--8--x--8--8--x-|
D|-x--7--7--x--7--7--x--7--7--x--7--7--x--7--7--x-|
A|-x--0--0--x--0--0--x--0--0--x--0--0--x--0--0--x-|
E|------------------------------------------------|
+
e|------------------------------------------------|
B|------------------------------------------------|
G|-8--8--x--8--8--x--8--8--x--8--8--8-----8--8--8-|
D|-7--7--x--7--7--x--7--7--x--7--7--7-----7--7--7-|
A|-0--0--x--0--0--x--0--0--x--0--0--0-----0--0--0-|
E|------------------------------------------------|



Verse:
e|-------------0----------------------------------|
B|-------------0--------------------0-------------|
G|-2-----------2-----------2-----2--2-----2--2----|
D|-2-----------2----(2)----2-----2--2-----2--2----|
A|-0----------------(0)----0-----0--0-----0--0----|
E|------------------------------------------------|
+
e|------------------------------------------------|
B|-------------0----------------------------(0)---|
G|-0-----------0-----0--0-----4--4--4--4--2br0----|
D|-x-----------x-----x--x-------------------(0)---|
A|-3-----3--3--3-----3-/5-------------------------|
E|------------------------------------------------|



Chorus:
e|------------------------------------------------|
B|------------------------------------------------|
G|----------------------------7--7--7--7\-5--5----|
D|-------9--9--9--7--7--9-----9--9--9--9\-7--7----|
A|-------x--x--x--x--x--x-------------------------|
E|/8-----8--8--8--8--8--8-------------------------|
+
e|------------------------------------------------|
B|------------------------------------------------|
G|-0-----------0----------------------------------|
D|-3-----------3--------3--3-/5--5--5--5-/7--7----|
A|-3-----------3--------3--3-/5--5--5--5-/7--7----|
E|-1-----------1--------1--1-/3--3--3--3-/5--5----|
+
e|------------------------------------------------|
B|------------------------------------------------|
G|----------------------------7--7--7--7\-5--5----|
D|-------9--9--9--7--7--9-----9--9--9--9\-7--7----|
A|-------x--x--x--x--x--x-------------------------|
E|/8-----8--8--8--8--8--8-------

Benci Untuk Mencinta chords – Naif

 Benci Untuk Mencinta

Intro :  D Dm7 D7 G Gm F#m A A7 D Dm7 
oh.. betapa ku saat ini
 D7 G 
ku benci untuk mencinta
 Gm F#m A 
mencintaimu..

 D Dm7 
oh.. betapa ku saat ini
 D7 G 
ku cinta untuk membenci
 Gm F#m A 
membencimu..

reff:
 D F# 
aku tak tau apa yang terjadi
 Bm D7 
antara aku dan kau
 G 
yang ku tau pasti
 Gm D A 
ku benci untuk mencintaimu..

Interlude : D bassC# bassC bassB Em bassD#
 Em A F#m Bm C G A 

Back to : reff 2x

 Bm/A G 
yang ku tau pasti
 Gm D Bm/A 
ku benci untuk mencintaimu          2x

coda :  D  bassC#  Bm A G Gm A D D F# Bm D7 G Gm D A D

Spring To Come Tabs by John Butler Trio

 -----------------------------------------------------------------------------
                    Spring To Come - John Butler Trio
-----------------------------------------------------------------------------

First of all I'd like to thank John Butler and his current and former bands for creating
such impressive, intense and beautiful music!

This tab only contains the awesome interlude and outro part because the other parts are
perfectly explained by John Butler himself in this video:

This tabs could be useful too:
http://www.guitarworld.com/acoustic-nation-video-lesson-play-it-now-john-butler-
teaches-us-play-spring-come

It was quite confusing to identify the timing of the melody along base-rhythm. I think I
finally figured it out correctly, so I thought: Let's share it!
If you have problems with the rhythm have a look at the video-link at the top. In the
end John plays the part really slowly, perhaps that helps you to get a feeling for the
timing. Also it is important to use the thumb for playing the base-notes G and D (or C
and D) in order to stick to the beat.
I hope there are no major mistakes in this tab nor my language, if else please use the
comment-section. :)

Tuning: C G D G b d

   1   +   2   +   3   +   4   +    1   +   2   +   3   +   4   +
d |--------------------------------|--------------------------------|
b |----------------1---0---------3~|----------------1---0---------0-|
G |----0h2-----0---------------0---|----0-------0---------------2---|
D |----0-------0-------0-------0---|----0-------0-------0-------0---|
G |0-------0-------0-------0-------|0-------0-------0-------0-------|
C |--------------------------------|--------------------------------|

This second half is almost the same just the base note changes from G to C.
   1   +   2   +   3   +   4   +    1   +   2   +   3   +   4   +
d |--------------------------------|--------------------------------|
b |----------------1---0---------3~|----------------1---0---------0-|
G |----0h2-----0---------------0---|----0-------0---------------2---|
D |----0-------0-------0-------0---|----0-------0-------0-------0---|
G |--------------------------------|--------------------------------|
C |0-------0-------0-------0-------|0-------0-------0-------0-------|

I Will Be Here chords – Steven Curtis Chapman V6

 I Will Be Here
Steven Curtis Chapman


Intro:

 D G/D D Dmaj7 G/D 


Verse 1:

 D A/C# Bm A G D/F# 
Tomorrow morning if you     wake up and the sun   does not appear
 Em Asus D Dmaj7 G/D 
I,         I will be here
 D A/C# Bm A G D/F# 
If in the dark, we lose sight of love, hold my hand and have no fear
        Em Asus D A/C# 
‘Cause I,       I will be here


Chorus 1:

            Bm A E/G# A 
I will be here     when you feel  like being quiet
 G D/F# G D/F# Em 
When you need to speak your mind, I     will listen
     F# Bm A E/G# A G 
And I will be here     when the laughter turns to crying
              D/F# G D/F# Em Asus - A 
Through the winning, losing and trying, we’ll be together
                   D 
‘Cause I will be here


Interlude:

 D G/D D Dmaj7 G/D 


Verse 2:

 D A/C# Bm A G D/F# 
Tomorrow morning, if you  wake up, and the future is unclear
 Em Asus  -  A D Dmaj7 G/D 
I,            I will be here
 D A/C# Bm A G D/F# 
As sure as seasons were made  for change our lifetimes were made for these years
    Em Asus D A/C# 
So I,        I will be here


Chorus 2:

            Bm A E/G# A 
I will be here,    so you can cry   on my shoulder
 G D/F# G D/F# Em 
When the mirror tells us we’re older, I     will hold you
     F# Bm A E/G# A 
And I  will be here    to watch you grow in beauty
 G D/F# G             
And tell you all   the things you mean to me
 D/F# Em F#sus - F# 
I will be here


Coda:

 Bm A E/G# A G D/F# 
I   will be true  to the promise I have made
     G D/F# Em Asus  –  A Asus  –  A 
To you and to    the One who gave you to    me
          D A/C# 
Just as sure as seasons were made for change
       Bm A G D/F# 
Our lifetimes were made for these years
    Em Asus  –  A F#7sus  –  F#7 Bm A 
So I,            I           will be here
       Em Asus  –  A  
We’ll be together
                   D G/D D 
‘Cause I will be here
 G/D D G/D Asus4 
  I will be here

Nosebleed chords – Maximo Park

 Hello there :) first time i did this so i hope its ok ...
I really like this song and its not to hard to play which is good since im an 
absolute beginner :).

 D 
Intro

 D Dbm 
You were born in winter
                     D 
But summer came too fast
                         Bm 
Like a child you can't control
              A D 
Now isn't it obvious?

 D Dbm 
But you still value his word
 G A D   
Now that it's not there
 D Bm 
A love life down the drain
              A D 
Now isn't it obvious?

                        Dbm 
Some people hide their emotions
                         D  
And some people show too much
                          Bm 
I'm aiming for somewhere central
              A D 
Now isn't it obvious?

 D 
He changed his look for you
 Em 
But you changed your life for him
 D Em D Em 
Now was the verdict worth the trial?

 D Em D 
Did we go too far?
 G Bm A D 
Is that why your nose is bleeding?
      Em D 
Last night I dreamt
    G Bm A       
We kissed on a bench in the evening

 D Dbm 
What went wrong with you?
                      A D 
I never took you for a fool
                       Bm 
But all it takes is a rumor
              A D 
Now isn't it obvious?

 D Dbm 
I'd love to clear the air
                               D 
But I can't bear to hear your voice
                   A Bm 
It's tainted with his name
              A D 
Now isn't it obvious?


 D 
He changed his look for you
 Em 
But you changed your life for him
 D Em D Em 
Now was the verdict worth the trial?

 D Em D 
Did we go too far?
 G Bm A D 
Is that why your nose is bleeding?
      Em D 
Last night I dreamt
    G Bm A       
We kissed on a bench in the evening

 D - D - D - D - D - D - G - D 
Interlude 

 D Em D 
Did we go too far?
 G Bm A D 
Is that why your nose is bleeding?
      Em D 
Last night I dreamt
    G Bm A D 
We kissed on a bench in the evening


I was the one who followed
     G Bm A D 
And you were the one who was leading
           Em D 
When last night I dreamt
    G Bm A      
We kissed on a bench in the evening

Uma Atriz Tabs by A Banda Mais Bonita Da Cidade

 Artist: A Banda Mais Bonita da Cidade
Song: Uma Atriz
 O Mais Feliz da Vida
: gustavoaraujo999@hotmail.com

Official website: http://abandamaisbonitadacidade.art.br/

intro.
e|-------7---|-------7---|----------------|-----------|
B|-----7---7-|-----7---7-|---------10-----|-------9---|
G|---7-------|---7-------|------11----11--|-----9---9-|
D|-9---------|-9---------|---11-----------|---9-------|
A|-----------|-----------|-9--------------|-7---------|
E|-----------|-----------|----------------|-----------|


interlude.
e|----------------------------------------------------------------------------|
B|-------------------------------------------------------------------------12-|
G|------x-9h11-------------x-9h11-------------x--9h11-------------x--9h11-----|
D|-9-12--------12-----9-12--------12-----9-12---------12-----9-12-------------|
A|----------------------------------------------------------------------------|
E|----------------------------------------------------------------------------|


chorus.
e|---------------------------------------------------------------|
B|-10--------10--------------------------------------------------|
G|----11--------11-----------------------------------------------|
D|-------11--------11-11--11b12br11-9----------------------------|
A|---------------------------------------------------------------|
E|---------------------------------------------------------------|

e|---------------------------------------------------------------|
B|-------------------9-----12------------------------------------|
G|-11-11-9-9---11------------------------------------------------|
D|--------------------------------/12---11---9---7---------------|
A|---------------------------------------------------------------|
E|---------------------------------------------------------------|


solo 1.
e|---------------------------------------------------------------|
B|---------------------------------------------------------------|
G|-----x-2-x-4--4b6br4-2-4-----------------------14b16-----------|
D|-x-2---------------------4/6-------------12--------------------|
A|-----------------------------------12/14----14-----------------|
E|---------------------------------------------------------------|


outro.
e|---------------------------------------------------------------|
B|---------------------------------------------------------------|
G|----------------------------------------------------4----------|
D|-------0-/4--------0-/4--/4--2--------------3p2p0--------------|
A|-0-2-4-------0-2-4--------------5\2------x--------2----2-------|
E|---------------------------------------------------------------|

e|---------------------------------------------------------------|
B|---------------------------------------------------------------|
G|---------------------------------------------------------------|
D|---------------------------------------------------------------|
A|-/5-/5--/4-/4--0-2-4-2-----------------------------------------|
E|---------------------------------------------------------------|



e|-------14-----14------12------10------9-----7-----5------------------|
B|-----15----------15------12------10-----7-----5-----3---3^-3^-3^-----|
G|---12-------------------------------------------------------------4--|
D|-12----------------------------------0-------------------------------|
A|---------------------------------------------------------------------|
E|---------------------------------------------------------------------|

e|-----------------------------|
B|-7----5---3---2--------------|
G|-9b11-7b9-5b7-4b6---r4-------|
D|-----------------------------|
A|-----------------------------|
E|-----------------------------|

piano.
e|--------------------------------|
B|---------10-9------------10-12--|
G|-------9---------------9--------|
D|-11-12-----------11-12----------|
A|--------------------------------|
E|----------------

Wild Free chords – A Rocket To The Moon

 Chord Wild And free - A Rocket To The Moon

Tuning: Standard 

#intro :  G C  (2x)

                     G C 
She was young
                G C 
And her daddy didn't warn her
                  G 
She had stars in her eyes,
                           C G C 
And she never gave up on California

              G C 
He was old,
                                       G C 
And not much of a dreamer
                 G 
But he knew what she wanted
                         C G C 
And there's nothing he could say that would keep her

#pre-chorus :
 D 
Sometimes, we gotta make up our own minds
 D  -  D 
And say


#chorus :
                  C D 
We can sing right along with the thunder
                    G Em 
We can be who we wanna be
                 C D 
And we'll never have to worry or wonder
            Am 
The only thing we gotta believe
 Am  -  Bm  -  C 
Is that we'll live while we're young
                 D 
And we'll do it 'cuz we're wild and free

#intro :  G C  (2x)

            G C 
He was told
                                       G C 
He was never gonna make it
                       G C 
He was wasting his time and his money
                                            G C 
On the chances he was taking

#pre-chorus :
 D 
Sometimes, we gotta make up our own minds
 D  -  D 
And say

#chorus :
                  C D 
We can sing right along with the thunder
                    G Em 
We can be who we wanna be
                 C D 
And we'll never have to worry or wonder
            Am 
The only thing we gotta believe
 Am  -  Bm  -  C 
Is that we'll live while we're young
                 D F 
And we'll do it 'cuz we're wild and free

#bridge :
                   C 
We get no time for a second chance
 F 
Freeeeeeeeeeeeeeeeeeeeee
                     C D 
We're gonna find our way and never look back

#interlude :  C D G Em C D Am 

#chorus :
                   C D 
We can sing right along with the thunder
                  G Em 
We can be who we wanna be
                    C D 
And we'll never have to worry or wonder
          Am 
The only thing we gotta believe
 Am  -  Bm  -  C D 
Is that we can't stop now or we're never gonna see
 C D 
Everything you want and everything you need
         C 
We'll live while we're young
                D 
And we'll do it 'cuz we're wild and free

(Alright)
#outro :  G C  (4x)
Wild and free
Wild and fre

50 Ways To Say Goodbye chords – Train V8

 Train - 50 Ways To Say Goodbye
Flat tune        F#  = xx4322

Intro    Em     | Am     | D      | G      | C      | Am     | B7     |     ||
Verse 1
 Em Am D G 
 My heart is paralyzed, my head was oversized
 C Am B7 
 I'll take the high road like I should
 Em Am D G 
 You said it's meant to be, that it's not you, it's me
 C Am B7 
 You're leaving now for my own good
          NC
That's cool but if my friends ask where you are I'm gonna say

Chorus
           C G 
She went down in an airplane, fried getting suntan
 D Em D 
 Fell in a cement mixer full of quicksand
  C G F# B7    
Help me, help me I'm no good at goodbyes
             C G 
She met a shark underwater, fell and no one caught her
 D Em D 
 I returned everything I ever bought her
  C G B7 
Help me, help me I'm all out of lies and ways to say you died

Interlude    Em     | Am     | D      | G      | C      | Am     | B7     |     ||

Verse 2
 Em Am D G 
 My pride still feels the sting, you were my everything
 C Am B7 
 Someday I'll find a love like yours (a love like yours)
 Em Am D G 
 She'll think I'm Superman, not super minivan
 C Am B7 
 How could you leave on Yom Kippur?
        NC
That's cool but if my friends ask where you are I'm gonna say

Chorus
           C G 
She was caught in a mudslide, eaten by a lion
 D Em D 
 Got run over by a crappy purple Scion
  C G F# B7 
Help me, help me I'm no good at goodbyes
           C G 
She dried up in the desert, drowned in a hot tub
 D Em D 
 Danced to death at an east side nightclub
  C G B7 
Help me, help me I'm all out of lies and ways to say you died

Interlude    Em     | Am     | D      | G      | C      | Am     | B7     |     ||

Bridge
    D                                      
I wanna live a thousand lives with you, 
    C D C          
I wanna be the one you’re dying to love, but you don't want to
         B7    NC
That's cool but if my friends ask where you are I'm gonna say
         B7    
That's cool but if my friends ask where you are I'm gonna say

Chorus
           C G 
She went down in an airplane, fried getting suntan
 D Em D 
 Fell in a cement mixer full of quicksand
  C G F# B7    
Help me, help me I'm no good at goodbyes
             C G 
She met a shark underwater, fell and no one caught her
 D Em D 
 I returned everything I ever bought her
  C G B7 
Help me, help me I'm all out of lies
           C G 
She was caught in a mudslide, eaten by a lion
 D Em D 
 Got run over by a c

Next Exit Tabs by Unwound

 Artist: Unwound
Song: "Next Exit"
 Repetition (1996)



Tuning: F# A D G B E



Verse:
E |------------------------------------------------|
B |------------------------------------------------|
G |------------(0)-------------------------7--7----|
D |-11----------11-------------11-11-11-11-7--7----|
A |-9-----------9--------------9--9--9--9--x--x----|
F#|-0-----0--0--0-----0--0--0--10-10-10-10-8--8--0-|
+
E |------------------------------------------------|
B |------------(0)---------------------------------|
G |(0)----------0----------------------------------|
D |-10----------10-------------12-12-12-12-14-14---|
A |-x-----------x--------------x--x--x--x--x--x----|
F#|-10----10-10-10----10-10-10-12-12-12-12-12-12-0-|



Interlude I:
E |------------------------------------------------|
B |------------------------------------------------|
G |------------------------------------------------|
D |-6--------6----------------/14-------14----14\--|
A |-4--------4----------------/12-12-12-12-12-12\--|
F#|----5--5-(0)---------------/14-14-14----14------|
+
E |------------------------------------------------|
B |---------------------------------------(0)------|
G |----------------------------7b-------8br0-------|
D |-6--------6-----------------6-----------5-------|
A |-4--------4-------------------------------------|
F#|----5--5-(0)------------------------------------|
+
E |------------------------------------------------|
B |------------------------------------------------|
G |------------------------------------------------|
D |-6-------------------------/14-------14----14\--|
A |-4-------(4)---------------/12-12-12-12-12-12\--|
F#|----5--5--0----------------/14-14-14----14------|
+
E |------------------------------------------------|
B |--------------0---------------------------(0)---|
G |-------------0--------------8b-------5b---r0----|
D |-6----------6---------------6--------------5----|
A |-4---------4------------------------------------|
F#|----5--5--0-------------------------------------|
+
E |------------------------------------------------|
B |-------------0----------------------------------|
G |------------0-----------------------------------|
D |-6---------6---------------/14-------14----14\--|
A |-4--------4----------------/12-12-12-12-12-12\--|
F#|----5--5-(0)---------------/14-14-14----14------|
+
E |------------------------------------------------|
B |----------------------------------------0-------|
G |-------------0--------------8b-------5br0-------|
D |-6----------6---------------6-----------5-------|
A |-4---------4------------------------------------|
F#|----5--5--0-------------------------------------|
+
E |------------------------------------------------|
B |-------------0----------------------------------|
G |------------0-----------------------------------|
D |-6---------6---------------/14-------14-14-14\--|
A |-4--------4----------------/12-12-12-12-12-12\--|
F#|----5--5-(0)---------------/14-14-14-------14\--|
+
E |------------------------------------------------|
B |-------------------------------------------0----|
G |-------------0--------------8b-------8b---r0----|
D |-6----------6---------------6--------6----(6)---|
A |-4---------4------------------------------------|
F#|----5--5--0-------------------------------------|



Interlude II:
E |------------------------------------------------|
B |------------------------------------------------|
G |------------------------------------------------|
D |-6--------6----------------/14-------14----14\--|
A |-4--------4----------------/12-12-12-12-12-12\--|
F#|----5--5-(0)---------------/14-14-14----14------|
+
E |------------------------------------------------|
B |-------------------------------------4----(0)---|
G |-0----------0---------------7b---------r7--0----|
D |-6---------6----------------6--------------6----|
A |-4--------4--------------------------

Samuel Mendonca-amazed chords – Misc Your Songs

 Amazed
Samuel Mendonҫa
--------------------------------

Verse 1
 Bm G 
In the waves of the ocean
 D F#m 
In the rays of the sun
 Bm G 
In my hopes and my failures 
 D F#m 
When I'm trying to run

Pre-Chorus
         Bm G D A 
I will stand, amazed, by You
         Bm G D A 
I will stand, amazed, by You

Tag  Am F C Em 

Verse 2
 Bm G 
When I'm weak and I'm doubting
 D F#m 
When I seek but I fear
 Bm G 
I will stand on Your promise
 D F#m 
I will know You are near

Pre-Chorus
         Bm G D A 
I will stand, amazed, by You
         Bm G D A 
I will stand, amazed, by You

Chorus 
(Because)
       Bm G 
I am nothing without Your love (and)
        D A 
I am nothing without Your son 
             Bm G 
And I will give it all
         D A 
Just to be Yours 

Interlude  Am F C G 

Bridge 
 Bm G 
Take my hand and I'll go 
 D A 
Take my heart and I'll know

(Chorus)

Shes A Yum Yum chords – Charlie Rich

 She's A Yum Yum:Charlie Rich.
Recorded in 1966 on GROOVE Records.
DNC.

INTRO:  F Bb Fm Bb Fm Bb Fm Bb Ab 

#1.
 Bb F 
Sweeter than honey can be to your tum-tum.
 F Cm F Bb F  
That little girl of mine, she's a yum-yum.
 Bb F Cm7 
One sweet taste of her lips makes me rum-dum.
 F Cm F Bb Eb Ebm 
That little girl of mine, she's a yum-yum.

#2.
             Eb Bb 
She make me shiver and shake, when she talks.
 Bb Eb Bb C F 
And she really knocks me out, when she walks.
       Bb Eb Bb F 
Whoa, everybody ask me where, do she come from.
 Eb Cm F Bb F Bb 
That little girl of mine, she's a yum-yum.


INTERLUDE:  Eb Bb F .. Bb 

#3.
             Eb Bb 
She make me shiver and shake, when she talks.
 Bb Eb Bb C F 
And she really knocks me out, when she walks.
       Bb Eb Bb F 
Whoa, everybody ask me where, do she come from.
 Eb Cm F Bb F Bb 
That little girl of mine, she's a yum-yum.

OUTRO:
 F Cm F Bb 
That little girl of mine, she's a yum-yum.
 F Cm F Bb 
That little girl of mine, she's a yum-yum..(Fade.)



A sixties smash from Kraziekhat.

Big Boss Man chords – Charlie Rich

 Big Boss Man:Charlie Rich.
#108 on BB Hot 100 on GROOVE Records
in 1964.

INTRO:  Bb Db Bbm Bb 

CHORUS:
 Bb Bbm Bb 
Big boss man..won't you hear me when I call?
(big boss man-big boss man.)
          Eb Bb 
Big boss man..won't you hear me when I call?
(big boss man-big boss man.)
           F Eb Bb 
Well, you ain't so big..you just tall, that's all.
(big boss man-big boss man.)

#1.
 Bb 
Hmmm-mm-a-well ya got me a-workin' boss man, workin' 
            Bbm 
around the farm.
 Bb Bb7 
I wanna little drink of water, but ya won't gimme some.

CHORUS:
 Db Eb Bb 
Big boss man..won't you hear me when I call?
(big boss man-big boss man.)
           F Fm Eb Bb 
Well, you ain't so big..you just tall that's all.
(big boss man-big boss man.)


INTERLUDE:  Bb Eb Bb .. F Eb Bb .. F 

#2.
                     Bb 
Hmmm-mm-a-I'm gonna find a boss man, one thatll treat me 

right.
                                  Ab Bb 
I work hard in the daytime, gone rest easy at night.

CHORUS:
 Db Eb Bb 
Big boss man..won't you hear me when I call?
(big boss man-big boss man.)
           F Fm Eb Bb F F7 
Well, you ain't so big..you just tall that's all.
(big boss man-big boss man.)

CHORUS:
 Bb Eb Bb 
Big boss man..won't you hear me when I call?
(big boss man-big boss man.)
          Eb Bb 
Big boss man..won't you hear me when I call?
(big boss man-big boss man.)
           F Eb Bb 
Well, you ain't so big..you just tall, that's all.
(big boss man-big boss man.)

OUTRO:
           F Eb Bb 
Well, you ain't so big..you just tall that's all.
(big boss man-big boss man.)
           F Eb Bb 
Well, you ain't so big..you just tall that's all.
(big boss man-big boss man.)(Fade.)


A sixties smash from Kraziekhat.

People Need The Lord chords – Avalon

 People Need the Lord - Avalon
(Written by Greg Nelson and Phil McHugh)

Capo 2

Intro:

 G C G C 


Verse 1:

 G D/F# Em 
Everyday they pass me by
 G D/F# Em 
I can see it in their eyes
 G/B Em 
Empty people filled with care
 Am Dsus - D 
Headed who knows where
 G D/F# Em 
On they go through private pain
 G/B Dm C 
Living fear to fear
 C/G G/B 
Laughter hides their silent cries
 Am Dsus - D 
Only Jesus hears


Chorus 1:

 G Am 
People need the Lord
 G/B C 
People need the Lord
 D C G/B C 
At the end of broken dreams
 Am Dsus - D 
He’s the open door
 G Am 
People need the Lord
 G/B C 
People need the Lord
 D C G/B C 
When will we realize
 Am D G 
People need the Lord


Interlude:

 G C G C 


Verse 2:

 G D/F# Em 
We are called to take His light
 G D/F# G 
To a world where wrong seems right
 G/B Em 
What could be too great a cost
 Am Dsus    -    D 
For sharing life with one who’s lost
 G D/F# Em 
Through His love our hearts can feel
 G/B Dm C 
All the grief they bear
 C/G G/B 
They must hear the Words of Life
 Am Dsus - D 
Only we can share


Chorus 2:

 G Am 
People need the Lord
 G/B C 
People need the Lord
 D C G/B C 
At the end of broken dreams
 Am Dsus - D 
He’s the open door
 G Am 
People need the Lord
 G/B C 
People need the Lord
 D C G/B C 
When will we realize
 D C G/B C 
That we must give our lives
 Am D Em Am 
People need the Lord
 Am Dsus - D G 
People need the Lord

Coda:

 G C G/B C 
Oh how we need the Lord

Keep The Ball Rollin chords – Jay And The Techniques

 Keep The Ball Rollin':Jay And The Techniques.
#14 on BB Hot 100 on SMASH Records
in 1967.

INTRO:  Db B A Abm .. Db B A Ab ..

CHORUS:
 Db Dbm Db 
Keep the ball rollin'..keep the ball rollin'..girl, the 
             Ab 
name of the game is love.
         Eb Ab Bb Ebm 
On your mark, get set, let the kissin' start and just keep 
          Db F# Db A D 
the ball rollin', baby, right into my heart.

#1.
 D Em 
How can you ask me to try and get by with just one little kiss?
  A 
(one little kiss?)
                 Em A D D 
The kissin' you do, I need a second helpin', too.. (need a second 
          Bb 
helpin', need a second helping, too.)
      Eb Bb Ab 
When you light the fire in my heart and every part of me is burning 

with you.
        Db F# Gm7 
You've got to put your lips closer to mine (closer to mine)..
                            Ab Ab 
Girl, you got to follow it through (you got to follow it through.)
 Ab Ab 
You got to follow it through..(you got to follow it through.)

CHORUS:
 Db Dbm Db 
Keep the ball rollin'..keep the ball rollin'..girl, the 
             Ab 
name of the game is love.
         Eb Ab Bb Ebm 
On your mark, get set, let the kissin' start and just keep 
          Db F# Db A D 
the ball rollin', baby, right into my heart.

#2.
 D Em 
Half of a loaf isn't better than none, when I'm starvin' for you..
           A 
(when I'm starvin' for you.)
 Em A D Bb 
Don't hold me tight, if every night we stop at two..(don't stop..keep 

the ball rollin'.)
    Eb Db 
If you want me there when you call, then girl, it's all or nothing..
 Ab 
next time you do.
     Db F# 
You got to put your lips closer to mine (closer to mine)..
 Gm7 Eb Ab Ab 
girl, you got to follow it through..(you got to follow it through)..
 Ab Ab 
you got to follow it through..(you got to follow it through.)

CHORUS:
 Db Dbm Db 
Keep the ball rollin'..keep the ball rollin'..girl, the 
             Ab 
name of the game is love.
         Eb Ab Bb Ebm 
On your mark, get set, let the kissin' start and just keep 
          Fm F# Db F# Db A 
the ball rollin', baby, right into my heart.


INTERLUDE:  D Gm D 

OUTRO:
 D B D         
Yeah..keep the ball rollin'..keep the ball rollin'..girl, the name of 
     A        
the game is love.
         E A B Em F#m 
On your mark, get set, let the kissin' start and just keep the ball rollin',
 G D G D .. Bb 
baby, right into my heart..

... Ebm B Ebm .. B Ebm Abm .. B Ebm Db .. Abm Eb 

Homesick chords – Catfish And The Bottlemen

 -------------------------------------------------------------------------------
                             HOMESICK - Catfish and the Bottlemen
-------------------------------------------------------------------------------
: Ben Musgrove
 mussyjunior@hotmail.co.uk

Tuning: Standard, capo on 7

Intro:

e|---------------------------------------------------------------------------|
B|---------------------------------------------------------------------------|
G|---0-----------------0-----------------0-----------------------------------|
D|-2-----4---2---0---2-----4---2-------2-----4---2---0---------------2-------|
A|-----5---3---2---------5---3-------------5---3---2---2-----2---0-----------|
E|-----------------------------------------------------3---3---2---0---------|

Runs over the initial verses as well, although you can play the simple chords and have 
it sound fine. Fingerpick the above for best results.

Verse:

 Em D C G/B 
I got misled, mistook, discard.
 Em D C 
Anything that I said
 Em D C G/B G 
I'm not the type to call you up drunk,
     G D/F# Em 
But I've got some lies to tell.
 Em D C G/B 
She hates her work but loves to flirt.
 Em D C 
Shame, she don't work with me.
 Em D C G/B G 
She gets uptight and don't like when I'm­ gal.
      G D/F# Em 
But, she won't let on to me.


Interlude:

e|--------------------------------------------------------------------------|
B|---3---0---1---------3---0---1---------3---0---1--------------------------|
G|---------------2-----------------------------------2-0-----4---2---0------|
D|-2-----------------2-----------------2------------------------------------|
A|-----5---3---3---------5---3-------------5---3---2------------------------|
E|-----------------------------------------------------3---3---2---0--------|

Chorus:

        Em D C 
I said I'm only looking out for you,
               Em D C 
she said It's obvious that's a lie.
      Em D C 
But, I only ever put out for you,
              Em D C 
You know Its obvious you don't try.

On the the extended choruses, the second half changes slighty:

        G D C 
I said I'm only looking out for you,
               Em D C 
she said It's obvious that's a lie.
      G D C 
But, I only ever put out for you,
              Em D C 
You know Its obvious you don't try.

Solo:

e|-------------------------------------------------------------------------|
B|-------------------------------------------------------------------------|
G|----------------------------------0-2-0----------------------------------|
D|---------0-2s4-2~---------0-2s4-2-------4--------------------------------|
A|-----0-2--------------0-2------------------------------------------------|
E|-0-3--------------0-3----------------------------------------------------|
   x2

Lyrics:

I got misled, mistook, discard.
Anything that I said.
I'm not the type to call you up drunk,
But I've got some lies to tell.
She hates her work but loves to flirt.
Shame, she don't work with me.
She gets uptight and don't like when I'm­ gal.
But, she won't let on to me.

I said I'm only looking out for you,
she said It's obvious that's a lie.
But, I only ever put out for you,
You know it's 

Sherlock Bbc – Interlude From Tabs by Misc Soundtrack

 This is the recurring theme that comes up fairly regularly throughout each episode 
of Sherlock, arranged for fingerstyle guitar. It's best played with a light, bouncy tone.

, so please do advise me of any mistakes!



e|----------------------------------|------0---------------------------|
B|------0-------0-----0-1-------0---|------1-------1-------1-------1---|
G|------0-------0---3-----------0---|--2---2-------2-------2-------2---|
D|------2---------------------------|----------2---------------2-------|
A|----------2---------------2-------|--0---------------0---------------|
E|--0---------------0---------------|----------------------------------|


e|------0-------0-----0-2-------0---|--3-------------------------------|
B|------1-------1---4-----------0---|------0-------0-------0-------0---|
G|--2---2-------2-------------------|------0-------0-------0-------0---|
D|----------2---------------2-------|----------------------------------|
A|--0---------------0---------------|----------2---------------2-------|
E|----------------------------------|--0---------------0---------------|


e|--7---0-------0---2---3---2h3p2--0---|--5---0-----------------------0h2-|
B|------0-------0------------------0---|--------------2-------2-----------|
G|-------------------------------------|--------------2-------2-----------|
D|-------------------------------------|----------2---------------2-------|
A|----------2---------------2----------|--0---------------0---------------|
E|--0---------------0------------------|----------------------------------|


e|--3---3/5-2---2/3-0---0h2---------|--0-------------------------------|
B|--1-------1-------1-------4---1p0-|------0-------0-------0-------0---|
G|--2-------2-------2---------------|------0-------0-------0-------0---|
D|----------------------------------|----------------------------------|
A|--0-------0-------0-------0-------|----------------------------------|
E|----------------------------------|--0-------2-------3-------0-------|

(If you wish, end with an Em chord, quickly palm-muted.)

Be Still Chords – Bethel Music

 Intro:  D 


Verse 1:
 D G Bm 
Be still my heart and know, You are God alone
        A G 
Stop thinking so much, And just let go
 D G Bm 
Be still my soul and rest, Humbly I confess
            A G 
In my weakness, Your strength is perfect



Chorus:
      G Bm A 
For You alone are God, There will be no other
      G Bm A  ( Em  last chorus before bridge)
And You have won my heart, more than any other
     G A Bm A  ( D  into Bridge)
So I will give it all, `Cause You gave it all for me

Interlude:  Em ///  D ///  Bm ///  A ///  Em ///  D ///  A /// //// x2
*(Half interlude to repeat chorus)

Progression into bridge:  A ///  Bm ///  D/F# ///  G /// -  A ///  D ///  D/F# ///  G ///



Bridge:
 A Bm D/F# G 
"Bless the Lord," Oh my soul cries out
 A D D/F# G 
All that is within me praise
 A Bm D/F# G 
"Bless the Lord," Oh my soul cries out
 A D D/F# G 
All that is within me praise

*Continue bridge progression to outro slams.

Slams:  A ///  Bm ///  D/F# ///  G ///  D !!!

Where Two Bodies Lie Acoustic Chords – Moving Mountains

 Tuning: (DADF#Ae)

Rhythm:
*Listen to the song for strum pattern.
*Chords are placed over appropriate syllables when applicable.
*During the Intro and the Interlude in 4/4 time, one "-" or any letter represents one beat.
*During the Interlude in 6/8 time, one "-" or any letter represents a 1/16th note,
due to the offbeat chord change. (same speed as the lead guitar Riff before the climax 
of the song)

Chords Used:
       D E F#m G G# *  A Bm 
 e|---0---0---0---0---0---0---0---|
 A|---0---0---0---0---0---0---0---|
F#|---0---2---3---5---0---7---8---|
 D|---0---2---4---5---9---7---9---|
 A|---0---2---4---5---7---7---9---|
 D|---0---2---4---5---6---7---9---|



4/4
Intro: |D---D---F#m-E-A-| 4X


 Bm D F#m E 
   When you don't see the fall, you'll know by now just how it feels
                   Bm D F#m 
"Well you've got more to learn from this." I heard you say
               G             D --
You laid your hands upon my face


-- D     F#m   E  A   D --
        Don't forget me
-- D       F#m   E  A   D --
        I won't forget you
-- D            F#m E    A     D --
        Parked cars and night fall
-- D      F#m  E       A      XXX
        Places that remember you


 Bm D F#m E 
   We walk along the path, we've walked a thousand times in our past
                  Bm D F#m 
Well you've got more to learn from this. So hold my hand, and hold your
   G 
breath


Interlude: |Bm-------A---G#*-F#m-|Bm-------A-------| 3X


6/8
Bridge:
          F#m G# *             A 
Because you mean everything to me
          F#m E D 
So just let go of everything between
        F#m G# *       A 
I am scared of dying so bad
             F#m E D 
But aren't we all scared?


|F#m-----------D-----A--E--|4X


Outro: 4X (1st time without vocals)
 D F#m 
  Someday we'll find
 D F#m E 
  Our hearts will align, Ohhoh
 D A 
  and burn all the way
            Bm 
Burn with time, Oh






Comment, Rate, and Enjoy!

Potions Tabs by Puscifer

 "Potions" by Puscifer,  ""C" is For (Please Insert Sophomoric Genitalia Reference HERE)"

Intro - Verse

E|----------------------------------------|         E|-------------------------------|
B|----------------------------------------|         B|-------------------------------|
G|----------------------------------------|         G|-------------12---------12-----|
D|----------------------------------------|         D|------15---------15------------|
A|------8------10------4------6---5-------|         A|-------------------------------|
E|----------------------------------------|         E|-------------------------------|

E|-------------------------------------------|
B|-------------------------------------------|
G|-------------------------------------------|
D|------10---9-------------------------------|
A|-----------------10---8---10--8--10--------|
E|-------------------------------------------|

Chorus

E|-----------15---------15------------|--------------------------------|
B|-----13---------13---------13-------|---11---8-----------------------|
G|------------------------------------|--------------10---8---10-------|
D|------------------------------------|--------------------------------|
A|------------------------------------|--------------------------------|
E|------------------------------------|--------------------------------|

Interlude - Outro

E|---------------------------------------------|
B|---------------------------------------------|
G|------8------------------------10------------|
D|------8---10------8------------10-----6------|
A|------6---10------8------------8------6------|
E|-----------8------6-------------------4------|

E|------------------------------------6--------------|
B|------4------3------4------6----------6------------|
G|------5------3------5------8------------8----------|
D|------5------3------5------8--------------8--------|
A|------3------1------3------6----------------6------|
E|---------------------------------------------------|

So, that's the song, if you want to improve the tab, please tell me...
I hope i've helped you
Thank you!!!