Tag: into

I Will Follow You Into The Dark Acoustic chords – Death Cab For Cutie

 Death Cab for Cutie - I Will Follow You Into the Dark Acoustic
From The World Famous KROQ (2015)
Comment for any corrections and please rate


Capo 5

Intro:
 Am C F C G/B Am C G Am C E Am G F Fm C/G C/G Am/E 
Love of mine, someday you will die
               F 
But I'll be close behind
              C G 
I'll follow you into the dark
      C/G Am/E 
No blinding light or tunnels to gates of white
                  F 
Just our hands clasped so tight
          C G 
Waiting for the hint of a spark

     Am C 
If Heaven and Hell decide
            F C G/B 
That they both are satisfied
    Am C G 
Illuminate the No's on their vacancy signs
      Am C 
If there's no one beside you
            E Am G 
When your soul embarks
      F Fm C/G 
Then I'll follow you into the dark

     C/G Am/E 
In Catholic school as vicious as Roman rule
            F C G 
I got my knuckles bruised by a lady in black
        C/G Am/E 
And I held my tongue as she told me
                    F 
"Son, fear is the heart of love"
       C G 
So I never went back

     Am C 
If Heaven and Hell decide
            F C G/B 
That they both are satisfied
    Am C G 
Illuminate the No's on their vacancy signs
      Am C 
If there's no one beside you
            E Am G 
When your soul embarks
      F Fm C/G 
Then I'll follow you into the dark

  C/G Am/E 
You and me have seen everything to see
                  F 
From Bangkok to Calgary
          C G C/G 
And the soles of our shoes are all worn down
                Am/E 
The time for sleep is now
                   F 
It's nothing to cry about
               C G 
'Cause we'll hold each other soon
          Am F 
In the blackest of rooms

     Am C 
If Heaven and Hell decide
            F C G/B 
That they both are satisfied
    Am C G 
Illuminate the No's on their vacancy signs
      Am C 
If there's no one beside you
            E Am G 
When your soul embarks
      F Fm C Am 
Then I'll follow you into the dark
      F Fm C/G 
Then I'll follow you into the dark

Into A Dream chords – Shannon and The Clams

 Into a Dream - Shannon and the Clams (Dreams in The Rat House, 2013)

Chords:

      F# Bb B Bm C# D#m F 
e|---9--------6--------7--------7--------9--------6--------8----|
B|---11-------6--------7--------7--------9--------7--------10---|
G|---11-------7--------8--------7--------10-------8--------10---|
D|---11-------8--------9--------9--------11-------8--------10---|
A|---9--------8--------9--------9--------11-------6--------8----|
E|------------6--------7--------7--------9----------------------|

Chords in Bridge:

      B E A F# 
e|---7--------7--------5--------9----|
B|---7--------9--------5--------11---|
G|---8--------9--------6--------11---|
D|---9--------9--------7--------11---|
A|---9--------7--------7--------9----|
E|---7-----------------5-------------|


Intro/Riff:
                       
e|----------------------------------------------------|
B|----------------------------------------------------|
G|----------------------------------------------------|  OR
D|----------------------------------------------------|
A|----9--999-999-999-999--9---------8--9--8-----------|
E|---------------------------9--11-----------11--9----|


e|----------------------------------------------------|
B|----------------------------------------------------|
G|----------------------------------------------------|  
D|----------------------------------------------------|  
A|-------6--8--9--8--6--------------------------------|
E|----9-----------------9-----------------------------|  <-- playing it this way for the outro is easier

 F# Bb 
I don't know what this could mean
     B Bm 
The barns are gone; only vines I see
 F# C# 
I don't know,
             F# 
Is it gonna be there?

(Riff)

 F# Bb 
Where's Mister Bill and his dusty dog?
 B Bm    
Outdoor bathtub and his truck is gone!
      F# C# 
Well I don't know,
               F# 
Are you gonna be there?


(Riff)      F# D#m F 
Into   a   dreeeam!
            F# D#m F 
Into   a   dreeeam!
            F# D#m F 
Into   a   dreeeam!
            F# D#m F     (Riff)
Into   a   dreeeam!


 F# Bb  
Oh my gosh, am I in a dream?
 B Bm 
I can't hear the peacocks scream!
 F# C# 
I don't know,
               F# 
if it's gonna be there.

(Riff)

 F# Bb 
Where have the chickens and the bunnies gone?
     B Bm 
The prize geese swimming in the scummy pond?
      F# C# 
Well I don't know,
               F# 
if it's gonna be there.


(Riff)      F# D#m F 
Into   a   dreeeam!
            F# D#m F 
Into   a   dreeeam!
            F# D#m F 
Into   a   dreeeam!
            F# D#m F     (Riff)
Into   a   dreeeam!

Bridge:(The chords are played like that, but I couldn't figure out how the chords fit with the words exactly)

 B E A F#       x4

Is this home?       
Is this home?      
Lonely leaves of mary jane
where the dog-tail used to stand
Moles have stole my mom's topaz,
dropped in the field from my hand.
I'd hold old Stan and Ollie's eggs if I had the chance!

 F# Bb 
I don't know what this could mean,
     B Bm 
the wrecking ball has bashed it clean.
 F# C# 
I don't kno

Pave Your Way Into Tomorrow chords – Glen Campbell

 Pave Your Way Into Tomorrow
Glen Campbell
Theme from the Glen Campbell Goodtime Hour

Capo 2nd fret

Intro  C Dm7 Em Dm7 C Dm7 Em Dm7 

Verse 1

 C Dm7 Em Dm7 
Livin' for today is part of living for tomorrow
         C Dm7 Em Dm7 
For tomorrows something we all have to find
      C Dm7 Em 
It's black on black at midnight, so your faith
              Dm7 C      
must be your guide light to erase the fear of
 Bb G G7 
darkness from your mind.

Chorus 1

               C F G7 
You've got to pave your way into tomorrow
               C F G7 
You've got to live and let your brother live as well
               C F G7 
You've got to pave your way into tomorrow,
     C Dm7 Em     
and let your love of livin' cast it's spell,

Verse 2

 C Dm7 
Gentle raindrops falling feed the streams that
 Em Dm7 C 
keep on growing, till they build a raging river
               Dm7 
deep and wide.
 C Dm7 Em 
Now life is one big river, so if each man is a giver,
          Dm7 C Dm7 
we might help to keep the ocean satisfied,

Chorus 2

               C F G7 
You've got to pave your way into tomorrow
               C F G7 
You've got to live and let your brother live as well
               C F G7 
You've got to pave your way into tomorrow,
     C Dm7 Em Dm7 C Dm7 
and let your love of livin' cast it's spell,

Outro

      C D# Dm7 G7 C Dm7 C Dm7 C                     
And let your love of livin'   cast it's spell.

flyinglibra51
God Bless Glen Travis Campbell

I Turned Into A Martian chords by Misfits V2

 Artist : Misfits
Title : I Turned Into A Martian

Intro:

 Ab Bb Eb C Eb Bb  x2

Verse:

 C Eb Bb 
Possession of the mind is a terrible thing
 C Eb Bb 
It's a transformation with an urge to kill 
 C Eb Bb 
Not the body of a man from earth
 C Eb Bb Ab 
Not the face of the one you love

Chorus:
                Bb Eb 
Well, I turned into a Martian
      Bb Ab 
Whoa oh oh
     Bb Eb 
I can't even recall my name
      Bb Ab 
Whoa oh oh 
         Bb Eb 
Times I never hardly sleep at night
      Bb Ab 
Whoa oh oh
          Bb C Eb Bb 
Well, I turned into a Martian today
 
 C Eb Bb 

Verse:

 C Eb Bb 
I walk down city streets
    C Eb Bb 
On an unsuspecting human world
 C Eb Bb 
Inhuman in your midst
 C Eb Bb Ab 
This world is mine to own, 'cause

Chorus:

                Bb Eb 
Well, I turned into a Martian
      Bb Ab 
Whoa oh oh
     Bb Eb 
I can't even recall my name
      Bb Ab 
Whoa oh oh 
         Bb Eb 
Times I never hardly sleep at night
      Bb Ab 
Whoa oh oh
          Bb C      
Well, I turned into a Martian today

 F C   x4

                Bb Eb 
Well, I turned into a Martian
      Bb Ab 
Whoa oh oh
     Bb Eb 
I can't even recall my name
      Bb Ab 
Whoa oh oh 
         Bb Eb 
Times I never hardly sleep at night
      Bb Ab 
Whoa oh oh
          Bb Eb 
I turned into a Martian
      Bb Ab 
Whoa oh oh
     Bb Eb 
I can't even recall my name
                Bb Ab Bb 
Oh, won't you tell me what the fuck is my name, 
 Eb 
Martian
      Bb Ab Eb 
Whoa oh oh
      Bb Ab Bb Eb 
Whoa oh oh

Into The Line chords – Cloud Control

 Cloud Control - Into The Line


INTRO

 Em D    \
 G A    / x4 (the guitar plays the chords along the third and fourth time)


    like this..
e|-------------------------------------------------------------|
B|--------8---------7--7--7------------------------------------|
G|--------9---------7--7--7-------------4-----------6--6--6----|
D|--------9---------7--7--7-------------5-----------7--7--7----|
A|-7-------------5----------------------5-----------7--7--7----|
E|-------------------------------3---------------5-------------|


VERSE 1
 Em D G A Em D G A    
Two young ones walking home in hands
 Em D 
I can't say how
     G A Em D G A 
I'm sitting on the beach with a guitar in my hand


VERSE 2
 Em D 
As they walk by
   G A Em D G A 
I pull my head down over my hands
 Em D 
Sing into the water
 G A Em D G A     
 And sing into the sky


CHORUS
 E D 
Look into the line
 G A E D G A 
 At all the families in the sky
 E D G A E D G A  
Some of them are smiling and they don't even know why


BREAK

 Em D    \
 G A    / x6 (guitar plays along fifth and sixth time)


- play CHORUS twice -


OUTRO

 E D    \
 G A    / x6

end on  E

Into Jesus chords – Dc Talk

 Verse 1
 Em 
I see the moon, a million stars are out tonight
                         G A 
Gentle reminders of the way You are
 Em 
A sea of glass, a raging storm has come to pass
                         G A 
You show Your face in an array of ways

Pre Ch
 Csus2 D/F# 
My feet may venture to the ground But You will never let me down
 G B 
I can't hold it in My soul is screaming 

Chorus
 Em C G D 
Hey you, I'm into Jesus
 Em C G D 
Hey you, I'm into Jesus, oh yeah 
 Em C G D 
Hey you, I'm into Jesus 
 Em D 
Hey you, I've seen the truth and I believe 

Verse 2
I know You're there I feel Your love through my despair
You speak the words that ease away the pain
My heart is free, my eyes are clear My soul is healed
Now that You have got a hold on me 

Bridge
 E G 
Hey you, the kid is back
 A G 
And I do declare the sun is shinnin'
 E G 
Hey you, the kid is back
 A G 
With the red alert, and it might be blindin'

Falling Into You chords – Matt Willis V2

 -----------------------------------------------------------------------------
                   Falling Into You - Matt Willis
-----------------------------------------------------------------------------
: Fabio BlenderBR
 - Give your rating and help others users to find the best versions of the songs -

() > Lyrics sang by Matt Willis in the background


Verse:
 C C/B 
  I don't want to fight
               Asus2 
Don't want to be afraid
       G F G C 
I'm falling straight into you
 C C/B 
  Are everything 
         Asus2 
That I need right now
    G F G C 
I have fallen for you

 C C/B 
  Turn out the lights
                  Asus2 
Can't take those eyes right know
    G F G C 
I have fallen for you

(Turn off the lights 'cause you're killing me
Can't take the eyes that you're giving me
We've hurt each other before
Can't take the pain anymore)

 C C/B 
  Turn out the lights
           Asus2 
I need to know to right now
     G F G Bb 
If you have fallen for me

(Turn out the lights 'cause I don't wanna hide
I gotta know you are by my side
Don't wanna lose you now
When we're so good together)


Pre Chorus:
 Bb 
'Cause this time it's for real

'Cause this time it's for real


Chorus:
 C G F 
Falling into you, I'm falling into pieces
 C G F 
Just got to tell you but I'm scared you won't believe it
      C G A F 
And one day I'll wake up to find that we broke up
 C G F 
I don't want that for you, I don't want that for me

I just want to stay here


Verse 2:
 C C/B 
I feel that it's time 
               Asus2 
to say those three words to you
  G F G C 
Words are all that I have

 C C/B 
Don't walk away
                Asus2 
don't want to feel no pain
 G F G Bb 
That's okay I got you

(Don't walk away girl I'm begging you
You gotta hear what I'm telling you
Don't want to feel your pain
'Cause I believe in you
And I hope you feel it too)


Chorus:
 C G F 
Falling into you, I'm falling into pieces
 C G F 
Just got to tell you but I'm scared you won't believe it
      C G A F 
And one day I'll wake up to find that we broke up
 C G F 
I don't want that for you, I don't want that for me

I just want to stay here


Bridge: 

C (Hold)
 A C G    2x


Chorus:
 C G F 
Falling into you, I'm falling into pieces
 C G F 
Just got to tell you but I'm scared you won't believe it
      C G A F 
And one day I'll wake up to find that we broke up
 C G F 
I don't want that for you, I don't want that for me
 G 
I just want to stay here

 C G F 
Falling into you, I'm falling into pieces
 C G F 
Just got to tell you but I'm scared you won't believe it
      C G A F 
And one day I'll wake up to find that we broke up
 C G F 
I don't want that for you, I don't want that for m

Fall Into Place Tabs by Apartment V2

 ------------------------------------------------------------------------------
                                        Fall Into Place - The Apartment
------------------------------------------------------------------------------
: Dani N.

Tuning: Standard

Yo everyone, so this is my first tab and I hope you find it useful. I wrote it by ear so
it isnt perfect; actually there are quite a few mistakes that I just couldnt get right.
Pay special attention to the solo, thats where I may have messed up the most. Im open 
for every criticism so just shoot, no worries. Have fun!

Intro (This intro is the same as the one posted by David H., version 1 tab)

e|--10---10-9---9-5---5-7---7--10------10-12------12-10------10-12------12---|
B|----7-7----7-7---7-7---7-7-----12--12-----12--12-----12--12-----12--12-----|
G|-----7------7-----7-----7--------12---------12---------12---------12-------|
D|---------------------------------------------------------------------------|
A|---------------------------------------------------------------------------|
E|---------------------------------------------------------------------------|

The intro is played 4 times at the beginning of the song.

Next part:

e|---------------------------------------------------------------------------|
B|----7----------------------------------7/10--8--7--5h8--5--8\10--8--7------|
G|--7---7--9--7/2--2--2\7--6--7--4h7--4--------------------------------------|
D|---------------------------------------------------------------------------|
A|---------------------------------------------------------------------------|
E|---------------------------------------------------------------------------|

After playing this part TWICE, play the INTRO again TWICE. And you keep doing this
alternated sequence (2x Next part, then 2x Intro) TWICE (too…).

After playing the sequence above twice, youll have to repeat the intro twice, but the
second time it has got a slight variation at the end.

Intro (with a minimal variation at the end, its played once after repeating the intro)

e|--10---10-9---9-5---5-7---7--10------10-12------12-9-------9-12-------12---|
B|----7-7----7-7---7-7---7-7-----12--12-----12--12-----12--12-----12--12-----|
G|-----7------7-----7-----7--------12---------12---------12---------12-------|
D|---------------------------------------------------------------------------|
A|---------------------------------------------------------------------------|
E|---------------------------------------------------------------------------|

Solo (I couldnt get this part well, so suggestions are welcomed)

e|-7-10--5-9--3-7-----2h3----------9---7-10--5-9--3-7--------------14----12--|
B|----------------5-0------7-10--7--------------------5-0--7-5--10----10-----|
G|---------------------------------------------------------------------------|
D|---------------------------------------------------------------------------|
A|---------------------------------------------------------------------------|
E|---------------------------------------------------------------------------|

e|-7-10--5-9--3-7-----2h3----------9---7-10--5-9--3-7---10-10-10-10-10-10-10-|
B|----------------5-0------7-10--7-----------------------7--7--7--7--7--7--7-|
G|-------------------------------------------------------7--7--7--7--7--7--7-|
D|---------------------------------------------------------------------------|
A|---------------------------------------------------------------------------|
E|---------------------------------------------------------------------------|

e|-10-10-10------------------------------------------------------------------|
B|--7--7--7------------------------------------------------------------------|
G|--7--7--7------------------------------------------------------------------|
D|---------------------------------------------------------------------------|
A|---------------------------------------------------

Into Each Life Some Rain Must Fall chords – The Inkspots

 Into Each Life Some Rain Must Fall
The Inkspots (1944)

C7sus2:  x3533x
C7add#5: x35354

e|-----------10--9-8-----12--10-|-----------10------------------|
B|--------10----------10--------|--------11---------10-13-------|
G|-----10-----------------------|-----12------------------------|
D|-10---------------------------|-12------------12--------10-12-|
A|------------------------------|-------------------------------|
E|------------------------------|-------------------------------|

e|------------------------------|----------10-----------|
B|------------------------------|-------11----10-13-----|
G|-10-----------10h11----11-----|----10-----------------|
D|--------10h12-------10-----11-|-12----------------10--|
A|-----12-----------------------|-----------------------|
E|------------------------------|-----------------------|

 F6 F6 
Into each life some rain must fall
     F6 Gm C7  C7sus2
But too much is falling in mine.
 Gm Gm 
Into each heart some tears must fall,
     C7                C7add#5  F Gbdim Gm C7 
But some day the sun will    shine.

 A7 
Some folks can lose
     Am 
The blues in their hearts,
     G7 
But when I think of you,
                C7 
Another shower starts.

 F6 F6 D7 
Into each life some rain must fall,
     Gm F 
But too much is falling in mine.

 Bb Bb 
Into each life some rain must fall
     Bb Cm F7 
But too much, too much is falling in mine.
 Cm7 Cm7 
Into each heart some tears must fall,
     Cm7 C7 Bb Bdim Cm F7 
But some day the sun will shine.

 D7 
Some folks can lose
     Dm 
The blues in their hearts,
     C7 
But when I think of you,
                F7 
Another shower starts.
 Bb Bb G7 
Into each life some rain must fall,
     Cm Bb Bdim Cm F7 
But too much is falling in mine.


[Spoken]
 Bb Bb 
Into each and every life some rain has got to fall
 Bb Cm F7 
But too much of that stuff has fallen into mine
 Cm7 Cm7 
And into each heart some tears gotta fall
 Cm7 Bb Bdim Cm F7 
But I know that someday that sun is bound to shine


[Sung]
 D7 
Some folks can lose
     Dm 
The blues in their hearts,
     C7 
But when I think of you,
                F7 
Another shower starts.
 Bb Bb G7 
Into each life some rain must fall,
     Cm Bb Bb Eb7 Bb 
But too much is falling in mine.

Falling Into History Fell Out chords – Avril Lavigne V2

 Avril Lavigne
Falling Into History
Let Go B-sides
2001 BMG Records
boxcar_avie

Tuning: EADGBe

Key: Eb

Chords used:
 Eb  -   x68886
 Fm  -   133111
 Eb/G  - 365xxx
 Cm  -   x35543
 Bb/D  - x587xx
 G#  -   466544
 Bb  -   x13331
 F#  -   244322
 G/B  -  x2x003
 G#/C  - x365xx
 C#  -   x46664


Intro: 
 Eb -- Fm - Eb/G - G#/C -- Bb/D - Eb - G# -- Bb -- Eb/G -- G# - Bb -


Verse 1:
 Eb 
  Don't matter 
 Fm Eb/G G#/C 
what people say
   Bb/D Eb 
I never did believe
     G# Bb Eb/G 
them  I know I know
      G# Bb 
they know everything
 Eb Fm 
  I'll be alright
 Eb/G G#/C 
by  myself and
 Bb/D 
no one's gonna
 Eb G# Bb 
tell me I'm defined
    Eb/G G# Bb 
confined by love


Refrain 1:
 F# Fm Eb 
now our days 
        Bb/D 
seems strange
         Cm G/B 
I guess my heart 
     Bb Bb (hold)
was bound to change


Chorus 1:
           G# Bb 
I fell out   out 
            G#/C 
of you and me
        Bb/D Eb 
you're fading from
     G# 
view  and you're
 Bb Eb/G G# 
falling into history
   Bb G# Bb 
I fell out   out 
            G#/C 
of you and me
        Bb/D Eb 
you're fading from
     G# 
view  and you're
 Bb Eb/G G# Bb (hold)
falling into history


Verse 2:
 Eb Fm 
  I never thought 
 Eb/G G#/C 
that I'd say
      Bb/D 
that I   don't 
        Eb 
really miss you
 G# Bb Eb/G 
  I lived I breathed
      G# 
your breath through
 Bb Eb Fm 
me   time has a way 
    Eb/G G#/C 
of passing by
   Bb/D 
until I don't
   Eb G# 
remember why 
    Bb 
or how to
 Eb/G G# Bb 
hurt for you


Refrain 2:
 F# Fm 
love's pain has 
 Eb Bb/D 
gone somewhere
     Cm G/B 
and I'm finally
 Bb Bb (hold)
be there


Chorus 2:
           G# Bb 
I fell out   out 
            G#/C 
of you and me
        Bb/D Eb 
you're fading from
     G# 
view  and you're
 Bb Eb/G G# 
falling into history
   Bb G# Bb 
I fell out   out 
            G#/C 
of you and me
        Bb/D Eb 
you're fading from
     G# 
view  and you're
 Bb Eb/G G# Bb Eb/G 
falling into history


Bridge:
 Fm 
  you're Falling into
 C# 
  you're falling into
 Bb/D 
    you're falling
      C# 
into history yeah
 Fm 
  you're Falling into
 C# 
  you're falling into
 

Come Into My Heart chords – Lloyd Price

 Come Into My Heart:Lloyd Price.
#2 R&B and #20 on BB Hot 100 on
ABC-PARAMOUNT Records in 1959.


INTRO:
 Ab Db Ab 
Da-doot-doo..come on into my heart..
 Ab Db Ab 
Da-doot-doo..come on into my heart.

#1.
 Ab Eb 
I've never heard a name, as quite as sweet 

as yours.
 Eb Ab 
I never saw eyes, as quite as bright as yours.
      Db Ab F 
I've never found love that can't grow old..
     Eb Db Ab 
and that is why, and that is why, I love you.

CHORUS:
 Ab Eb 
So, come on..(come on into my heart)..
                 Ab Db Ab 
you better come on..(come on into my heart.)
                 Fm Bb Eb Ab 
You better come on-ah-ah-on, into my heart..
       Db Ab 
(come on into my heart.)

#2.
 Ab Eb 
I've never seen a heart, as good and pure as yours.
 Eb Ab 
I've never seen a smile, as true and bright as yours.
      Db Ab F Bb 
I've never found love that can't grow old..and that 
         Eb Db Ab 
is why, that is why, I love you.

CHORUS:
 Ab Eb 
So, come on..(come on into my heart)..
                 Ab Db Ab 
you better come on..(come on into my heart.)
                 Fm Bb Eb Ab 
You better come on-ah-ah-on, into my heart..
       Db Ab 
(come on into my heart.)

BRIDGE:
 Ab Db Db Ab Db 
Just sitting here thinking..(doot-doo-doo-doo-doot)
 Db Ab Ab Eb Ab 
with you on my mind..(doot-doo-doo-doo-doot.)
 Ab Db Db Ab Db Db 
Don't go nowhere..(doot-doo-doo-doo-doot)..I'm worried 
 Bb Bb Eb 
all the time..(doot-doo-doo-doo-doot-doot.)

OUTRO:
 Ab Eb 
So, come on..(come on into my heart)..
                 Ab Db Ab 
you better come on..(come on into my heart.)
                 Fm Bb Eb Ab 
You better come on-ah-ah-on..in..to..my..heart..(End.)


A fifties smash from Kraziekhat.
 

Midnight Carroll Street intro Tabs by Into It Over It

 -------------------------------------------------------------------------------
                   Midnight: Carroll Street - Into It. Over It. (intro/verse)
-------------------------------------------------------------------------------
: scr4mbles (Travis Hesketh)
 travi.hesketh [AT] gmail.com

Tuning: Standard (EADGBe) with CAPO ON 1

Capo on first fret, all fret numbers treat capo as 0.

Great song, shame the other tab sucks. Intro/verse for now, working on the rest!

I know it sounds like there's more than one guitar part, but I can't pick them out, and 
I think this works out okay.

First attempt at a tab, be gentle!

-f|---------------------------------------------|
-C|---------------------------------------------|
G#|---------------------------------------------|
D#|-1-1-1-1-1-1-1-2-2-2-2-2-2-2-4-4-4-4-4-4-4-4-|
A#|-2-2-2-2-2-2-2-2-2-4-2-2-2-2-2-2-2-2-2-2-2-2-|
-F|-4-4-4-4-2-2-2-0-0-0-0-0-0-0-0-0-0-0-0-0-0-0-|

-f|---------------------------------------------|
-C|---------------------------------------------|
G#|---------------------------------------------|
D#|-1-1-1-1-1-1-1-2-2-2-2-2-2-2-6-6-6-4-4-4-4---|
A#|-2-2-2-2-2-2-2-2-2-4-2-2-2-2-7-7-7-7-7-7-7-7-|
-F|-0-0-0-0-0-0-0-0-0-0-0-0-0-0---------------8-|


************************************

Falling Into You chords – Kasey Chambers

 CAPO 2

VERSE 1:

                         Bm C D 
 I've been crushed like paper  I've been washed like rain
 G Bm C D 
 I've been scared of sleeping in case I wake up the same
 G Bm C D 
 I've been broken and battered I've been lost in my home
 G Bm C D 
 I've been crying a river  I've been cold as a stone


 C D G D C 
 But falling into you it carries me far enough away 
 C D G D C C D C 
 And everything you do it lightens up my darker side of day
                       D G 
 I just hope that the wind doesn't blow you away

VERSE 2:

 G Bm C D 
 I've been left unattended  I've been thrown like a ball
 G Bm C D 
 I've been rolled with the punches and didn't feel a thing at all
 G Bm C D 
 I've been crossed by the wires  I've been blinded by the light 
 G Bm C D 
I've been burnt by the fire  I've been kept out of sight

CHORUS:

 C D G D C 
 But falling into you it carries me far enough away 
 C D G D C 
 And everything you do it lightens up my darker side of day
 C D G G D C 
 I just hope that the wind doesn't blow you away
 C D G 
 I just hope that the wind doesn't blow you away 

We Have Come Into This Place chords – Praise And Worship

 WE HAVE COME INTO THIS PLACE

Intro:  C  -  G C CM7 
We have come into this place
                         Am A7 Dm G  –  G7 
And gathered in His name to worship Him
                         G7 
We have come into this place
                                                                         C 
And gathered in His name to worship Him
                                                 C7 
We have come into this place
                                                                 F Fm 
And gathered in His name to worship Christ our Lord
                         C E7 Am - Dm G C - G 
Worship him, Jesus Christ our Lord

                                         C CM7 
Let’s forget about ourselves
                         Am A7 Dm G 
And concentrate on Him and worship Him
                                         G7 
Let’s forget about ourselves
                                                                         C 
And concentrate on Him and worship Him
                                         G7 
Let’s forget about ourselves

                                                         F Fm 
And concentrate on Him and worship Christ our Lord
                         C E7 Am  –  Dm G C  -  G 
Worship Him, Jesus Christ our Lord

                                            C CM7 
Let us lift up holy hands
                         Am A7 Dm G 
And magnify His name and worship Him
                                           G7 
Let us lift up holy hands
                                                                 C 
And magnify His name and worship Him
                                           C7 
Let us lift up holy hands
                                                         F Fm 
And magnify His name and worship Christ our Lord
                    C E7 Am  –  Dm G C  –  G  
Worship Him, Jesus Christ our Lord

Fade Into You chords – Sam Palladio And Clare Bowen V3

 "Fade Into You"
(with Sam Palladio)

Hey everybody,So this is how i play fade into you,this sounds 99% right this is 
not easy to play but once you get it you got it….Please be sure to read correctly 
or it won’t sound right… @ the parts with no chords just play the walkdown 
straight through .. Have fun enjoy 
Not beginner approved   

Capo 7

(Walkdown)
e|------0-0-----0-0-----0-0-----0-0-------------------------------------------|
B|------0-0-----0-0-----0-0-----0-0-------------------------------------------|
G|------0-0-----0-0-----0-0-----0-0-------------------------------------------|
D|---2-------1----------------------------------------------------------------|
A|-------------------0-------4------------------------------------------------|
E|----------------------------------------------------------------------------|
(Repeat 4x)

(play the walkdown throughout this part)=

 If you were the ocean and I was the sun
If the day made me heavy and gravity won
If I was the red and you were the blue
 C B7 Em 
I could just fade into you

e|------0-0-----0-0-----0-0-----0-0-------------------------------------------|
B|------0-0-----0-0-----0-0-----0-0-------------------------------------------|
G|------0-0-----0-0-----0-0-----0-0-------------------------------------------|
D|---2-------1----------------------------------------------------------------|
A|-------------------0-------4------------------------------------------------|
E|----------------------------------------------------------------------------|

If you were a window and I was the rain
I’d pour myself out and wash off the pain
I’d fall like a tear so your light could shine through
  C B7 Em 
Then I’d just fade into you
 
 Em D 
In your heart, in your head,
         C B7 Em 
in your arms, in your bed under your skin,
          D 
Til there’s no way to know where
  
 C B7 
you end and where I begin

e|------0-0-----0-0-----0-0-----0-0-------------------------------------------|
B|------0-0-----0-0-----0-0-----0-0-------------------------------------------|
G|------0-0-----0-0-----0-0-----0-0-------------------------------------------|
D|---2-------1----------------------------------------------------------------|
A|-------------------0-------4------------------------------------------------|
E|----------------------------------------------------------------------------|

If I was a shadow and you were a street
The cobblestone midnight is where we first meet
Til the lights flickered out, we dance with the moon
 C B7 Em 
Then I’d just fade into you

   Em D 
In your heart, in your head,
         C B7 Em 
in your arms, in your bed under your skin,
          D 
Til there’s no way to know where
   C B7 
you end and where I begin
   D C 
I wanna melt in I wanna soak through
   B7 Em 
I only wanna move when you move
   D C 
I wanna breathe out when you
 C B7 
breathe in then I wanna fade into you

e|------0-0-----0-0-----0-0-----0-0-------------------------------------------|
B|------0-0-----0-0-----0-0-----0-0-------------------------------------------|
G|------0-0-----0-0-----0-0-----0-0-------------------------------------------|
D|---2-------1----------------------------------------------------------------|
A|-------------------0-------4------------------------------------------------|
E|----------------------------------------------------------------------------|

If I was just ashes and you were the ground
And under your willow they laid me down
There

Portly – Into The Wind chords

 Capo 5


 C 
Give me a reason now
 Am 
Why we're here and how
 G C 
I just don't know

[We're lucky] specks of flesh and blood
 Am 
Or tailored breath and mud
 G C 
I just can't say

Author of laws and war
 Am 
In their canyon hearts you pour
 G C 
They've got no doubt

 F C 
Into the wind, your truth remains
 F C 
Until I see your coming day
 F C 
Only then will I know that I was wrong
G                --          G    C
But for now, I'll sing this dying song

 C 
Like cattle to the pasture
 Am 
Were you given your one master
 G C 
Or did you choose

You claim to have an orange truth
 Am 
And fight apples to the tooth
 G C 
But simply, you’re both fruits

The key of faith unlocks the gates
 Am 
Righteously you sit and wait
 G C 
But you’re here now

 F C 
Into the wind, your truth remains
 F C 
Until I see your coming day
 F C 
Only then will I know that I was wrong
 G                 --          G C 
But for now, I'll sing this dying song

       G C 
this dying song
       G C 
this dying song
       G C 
this dying song
       G C 
this dying song
       G C 
this dying song
       G C 
this dying song
       G C 
this dying song
       G C 
this dying song
       G C 
this dying song

Into The Woods intro Tabs by Insomnium

 |-----------------------------------------------------------------------------------------------|
|-----------------------------------------------------------------------------------------------|
|-----------------------------------------------------------------------------------------------|
|----------------------------------------------------------9---7-------9---7-------9---7--------|
|----7---9---7---7---9---7-----7---9---7---7---9---7---------0---0-7-0---0---0-7-0---0---0-7-0--|
|--0---0---0---0---0---0-----6---6---6---6---6---6---6------------------------------------------|

|--------------------------|
|--------------------------|
|--------------------------|
|--------------------------|       That's all I have for now, the intro bit.
|--7----7-9-10-9-----------|       You could probably figure out the second
|----10----------10--------|       part of the intro if you listened, it's not
                          that hard. Also first tab, so sorry if I
                          screwed up how I entered it :P Enjoy thus far!

Falling Into You Tabs by Mae V2

 FALLING INTO YOU
by MAE

Tuning : Tune Down 1/2 Step (Eb Ab Db Gb Bb Eb)

(0:17) PRE-VERSE

  (/ = slide)
|------------------------------------------|
|--12-----12/10-----10/8-----8/7-----7/3~--|
|-----0---------0--------0-------0---------|
|------------------------------------------|
|--10---10----9---9----7---7---5---5---3~--|
|------------------------------------------|
(0:27)                                     'RIFF'
|-------------------------------------------------------------|
|--12-----12/10-----10/8-----8/7-----7/3------3---1--2/3--/6--|
|-----0---------0--------0-------0--------0-----0--0----------|
|-------------------------------------------------------------|
|--10---10----9---9----7---7---5---5---3---3--3---3--3----/5--|
|-------------------------------------------------------------|


(0:41) VERSE

   (h = hammer ; p = pull-off)
|--------------------------0h2-----2h3-----3p2----------------------|
|------------------0h3---3-------3-------3-------3-------3-3p0------| x2
|--0h2---2-2h4---4---------------------------------------------2p0--|
|----------------------------------------------------------0--------|
|----------------------------------3---3---3---3---3---3------------|
|--3---3---3---3---3---3---3---3------------------------------------|


(1:00) POST-VERSE

|--------------------------5-----5p3-----2h3p2-----------------|
|----------------------3-------3---------------3----3-3p0------|
|------0---------0-2/4---4------0----------------2--------2p0--|
|--0h2---2/7-------------------------------------0-------------|
|--------------------------------3---3---3---------------------|
|--0---0---0---0---0-------------------------------------------|


(1:09) repeat VERSE twice
(1:26) repeat POST-VERSE then VERSE again once


(1:45)
|---------------------------------------------0--------------|
|--------0-----2-------0----0---0h3-----3--------------------|
|------0-----0---0---0--------0-------0---0-----2----2--0----|
|----2------------------------------------------0----0-------|
|-------------------------------3---3-------3----------------|
|--0-------2-------3-----------------------------------------|

 ------------------------------------------------------------|
 --------0-----2-------0----0---0h3-----3------------3-------|
 ------0-----0---0---0--------0-------0----0-----0-----0-----|
 ----2-----------------------------------------4---4-----4-0-|
 -------------------------------3---3--------5---------------|
 --0-------2-------3-----------------------------------------|

|---------------------------------------------0--------------|
|--------0-----2-------0----0---0h3-----3--------------------|
|------0-----0---0---0--------0-------0---0-----2----2--0----|
|----2------------------------------------------0----0-------|
|-------------------------------3---3-------3----------------|
|--0-------2-------3-----------------------------------------|


(2:12)
|---------------------------------------------------------------------|
|-----1-------3-------5----5----5-----5-----7-------8-----8-----8-----|
|-------0-------0---------------0-------------0-----------0-----------|
|-0h2-----2/4-----4/5--------------5----5/7-----7/9----9--------------|
|------------------------3----3----3-------------------7-----7----7---|
|---------------------------------------------------------------------|

 ----------------------------------|
 ------10-------12------12-----12--|
 ----------------------------------|
 -9/10----10/12--------------------|
 -------------------10------10-----|
 ----------------------------------|


(2:29)
 --------------------------------------------------------------|
 -0-1p0-1p0------0~-------0------3-------1--------0-------0~---|
 -0-0---0--------0~-------0--------0-------0------0-------0~---|
 -0-2---2--------0~-------0--2/4-----4/2----------0-------0~---|
 -x-x---x--------x~-------x-----------------------x-----

Into The Mystic chords – Van Morrison V4

 I like what was submitted so far, I just had some ideas for some more flourishes,
feel free to play along & use what you'd like!

capo III

   Cadd9 G *
e-----------|
B---1----3--|
G-----------|
D-----------|
A---3----2--|
E--------3--|

(verse 1)
      C Cadd9 C Cadd9 
     We were born before the wind
      C Cadd9 C Cadd9 
     Also younger than the sun
      G G *           G 
     'Ere the bonny boat was won
      G C Cadd9 C Cadd9 
     As we sailed into the mystic

(verse 2)
      C Cadd9 C Cadd9 
     Hark, now, hear the sailor's cry
      C Cadd9 C Cadd9 
     Smell the sea and feel the sky
      G G *        G 
     Let your soul and spirit fly
      G C Cadd9 C Cadd9 
     Into the mystic.

(bridge)
      Em , E , F 
         When that foghorn blows,
                    C Cadd9 C Cadd9 
         I will be comin' home,    Mmm hmm hm
      Em , E , F 
         When that foghorn blows,
                  G G *                 G 
         I wanna hear it, I don't have to fear it

(chorus)
          C Cadd9 C Cadd9 
     And I  wanna rock you gypsy soul
      C Cadd9 C Cadd9 
     Just like way back in the days of old
      G G *              G 
     And magnificently we will float
      G C Cadd9 C Cadd9 
     Into the mystic

(bridge)
      Em , E , F 
         When that foghorn blows,
                    C Cadd9 C Cadd9 
         I will be comin' home,    Mmm hmm hm
      Em , E , F 
         When that foghorn blows,
                  G G *                 G 
         I wanna hear it, I don't have to fear it

(ending chorus)
          C Cadd9 C Cadd9 
     And I  wanna rock you gypsy soul
      C Cadd9 C Cadd9 
     Just like way back in the days of old
      G G *       G 
     And together we will float
      G C Cadd9 C 
     Into the mystic

Into The Bloodstream chords – Archie Roach

 Archie Roach - Into The Bloodstream
(please listen to the song for chord timing)


  G  -  C G  -  C G C G C 
Well my body, is like this land
                 G D G C 
And this land, this land, this land, this land's the same
                 G C G C 
And the heart beat keeps on pumping
         G D G C 
Oh sweet precious life through your veins

         G Am 
Into the bloodstream
                 Bm Am 
Into the bloodstream
         G D 
Oh into the blood, into the blood
                         G C 
Into the bloodstream
         G C 
Oh yeah


            G C G C 
Well the river is like my veins
 G D G C 
Carrying sweet precious life to the muscles and the brain
                 G C G C 
Oh the heart beat begins to wane
                 G D G C 
Better pray, better pray, better pray, pray for rain


Into the bloodstream
Into the bloodstream
Oh into the blood, into the blood
Into the bloodstream
Oh yeah

  G  -  C G  -  C 

And the river is deep and wide
And no matter where I go or where I've been it's deep down inside
Run to the mountain, run to the plain
And if I run to the desert well she always calls me back again

Into the bloodstream
Into the bloodstream
Oh into the blood, into the blood
Into the bloodstream

         G C 
Into the bloodstream
         G C 
Into the bloodstream
         G D 
Oh into the blood, into the blood
                         G C 
Into the bloodstream
 G C 
Yeah,           oh yeah

  G  -  C G  -  C G