Tag: intro

Freazy intro Tabs – Wolf Alice

 -------------------------------------------------------------------------------
                             Freazy - Wolf Alice
-------------------------------------------------------------------------------
: Esme 
Twitter: @m0aninglisa

Tuning:Standard (E)

e|---------------------------------------------------------------------------|
B|--/5---0---1---0---------/5---0---1---3------------------------------------|
G|-------------------0-------------------------------------------------------|
D|---------------------------------------------------------------------------|
A|---------------------------------------------------------------------------|
E|---------------------------------------------------------------------------|

e|---------------------------------------------------------------------------|
B|--/5---0---1---0-----------------------------------------------------------|
G|-------------------0-----------2-2-2b-0------------------------------------|
D|---------------------------------------------------------------------------|
A|---------------------------------------------------------------------------|
E|---------------------------------------------------------------------------|


************************************

| /   slide up
| \   slide down
| h   hammer-on
| p   pull-off
| ~   vibrato
| +   harmonic
| x   Mute note
| b   Bend
| pb  Pre-bend
| br  Bend release
| pbr Pre-bend release
| brb Bend release bend

************************************

H intro Tabs – Ghost Runner on Third

 -------------------------------------------------------------------------------
                             H - Ghost Runner on Third
-------------------------------------------------------------------------------
: ethanc07

Tuning: Standard

I couldn't find any tabs for Ghost Runner on Third anywhere online and I'm a 
big fan of Jonny Craig and all his work so I decided to make my own. 
I know this isn't much but it's better than nothing.


Guitar I
e|-----------------------------------|
B|-----------------------------------|
G|--2-2--4--2--4h5p4p0---------------|   x8
D|-----------------------------------|
A|-----------------------------------|
E|-----------------------------------|


Guitar II
e|-----------------------------------|---------------------------------------|
B|-----------------------------------|---------------------------------------|
G|---2---4---5---4---7---5---4---5---|---2---4---5---4---7---5---4---5-------|
D|-----------------------------------|---------------------------------------|
A|-----------------------------------|---------------------------------------|
E|-----------------------------------|---------------------------------------|

e|-----------------------------------|---------------------------------------|
B|-----------------------------------|---------------------------------------|
G|---2---4---5---4---7---5---4---5---|---7---5---7---9---12------------------|
D|-----------------------------------|---------------------------------------|
A|-----------------------------------|---------------------------------------|
E|-----------------------------------|---------------------------------------|


e|---------------------------------------------------------------------------|
B|---------------------------------------------------------------------------|
G|---4---5---12-------4---5---12-------4---12----2------4---12----2----------|   x2
D|---------------------------------------------------------------------------|
A|---------------------------------------------------------------------------|
E|---------------------------------------------------------------------------|




************************************

| /   slide up
| \   slide down
| h   hammer-on
| p   pull-off
| ~   vibrato
| +   harmonic
| x   Mute note
| b   Bend
| pb  Pre-bend
| br  Bend release
| pbr Pre-bend release
| brb Bend release bend

************************************

Chloe intro Tabs – Little Brother Vsion 2

 -------------------------------------------------------------------------------
                             CHLOE - Little Brother
-------------------------------------------------------------------------------
: Thomas Harrison
 tomjar8.au

Tuning: E standard
Capo: 2nd fret

e|-------------5--2-2h3p2-0----------|
B|---3p0-3s5----------------0--------|
G|-----------------------------------|
D|-----------5-----------------------|
A|-3---------------------------------|
E|-----------------------------------|

e|---------------5---2-2h3p2-0-------|
B|-----3p0-3s5----------------0------|
G|-----------------------------------|
D|--0h2--------5---------------------|
A|-3---------------------------------|
E|-----------------------------------|

Just my take on the intro, John's version probably isn't exactly like this.

************************************

| /   slide up
| \   slide down
| h   hammer-on
| p   pull-off
| ~   vibrato
| +   harmonic
| x   Mute note
| b   Bend
| pb  Pre-bend
| br  Bend release
| pbr Pre-bend release
| brb Bend release bend

************************************

Land Of Snow And Sorrow intro Tabs – Wintersun Vsion 1

 -------------------------------------------------------------------------------
                             Land of Snow and Sorrow - Wintersun
-------------------------------------------------------------------------------
: Kakku
Tuning: EADGBE (Normal)

All the way till first verse.

h   = Hammer on
p   = Pull off
/   = slide
(x) = To play or not to play..
~   = Awesome


e|---------------------------------------------------------------------------|
B|---------------------------------------------------------------------------|
G|---------------------------------------------------------------------------|
D|---------------------------------------------------------------------------|
A|-1--1-3-3-----1-1-3-4-4----1--4-6-6----1-1-6-8-8---------------------------|
E|---------------------------------------------------------------------------|

e|---------------------------------------------------------------------------|
B|---------------------------------------------------------------------------|
G|---------------------------------------------------------------------------|
D|---------------------------------------------------------------------------|
A|-1--1-3-3-----1-1-3-4-4----1--4-6-6----1-1-8-9-9---------------------------|
E|---------------------------------------------------------------------------|

e|---------------------------------------------------------------------------|
B|---------------------------------------------------------------------------|
G|---------------------------------------------------------------------------|
D|---------------------------------------------------------------------------|
A|-1--1-3-3-----1-1-3-4-4----1--4-6-6----1-1-6-8-8---------------------------|
E|---------------------------------------------------------------------------|

e|---------------------------------------------------------------------------|
B|---------------------------------------------------------------------------|
G|---------------------------------------------------------------------------|
D|---------------------------------------------------------------------------|
A|-1--1-3-3-----1-1-3-4-4----1--4-6-6----1-1-8-9-9---(1)---------------------|
E|---------------------------------------------------------------------------|


e|---------------------------------------------------------------------------|
B|---------------------------------------------------------------------------|
G|---------------------------------------------------------------------------|
D|-3h6-6----6p3-6----6-8-10----10s11-11-11----3h6-6----6-5-3----6-8-10-------|
A|---------------------------------------------------------------------------|
E|---------------------------------------------------------------------------|

e|---------------------------------------------------------------------------|
B|---------------------------------------------------------------------------|
G|-------------------------10-13-13---13-10-13---13-15-17---17-18-18b20------|
D|--11/13-13-13h16-16-15-----------------------------------------------------|
A|---------------------------------------------------------------------------|
E|---------------------------------------------------------------------------|

e|---------------------------------------------------------------------------|
B|----------------------------------------14-16-16~--------------------------|
G|-10-13-13---13-12h13p12-10---13-15-17--------------------------------------|
D|---------------------------------------------------------------------------|
A|---------------------------------------------------------------------------|
E|---------------------------------------------------------------------------|

\,,/ 

Repeat 3x:
_________________________________________________________________________________

e|---------------------------------------------------------------------------|
B|---------------------------------------------------------------------------|
G|-----------------

Starry Eyed Acoustic intro Tabs – Ellie Goulding Vsion 2

 capo 1
Little noise session version

Awesome version of a very nice song :-)
listen to the song to hear which notes should be the loudest, since some are subtle and some are powerful.

watch: https://www.youtube.com/watch?v=EC_LtEuqF_E

the second line has some high notes from a synthesizer. Therefor the first Em and Em/G havebeen raised,
as to make the D string the bass-string.

tab and chords are relative to capo 1.

enjoy:

  Em                D                 Am7               Em/G
e|-----------------|--------2--------|-----------------|-----------------|
B|------0----------|------3----------|------1----------|------0---0------|
G|----------0------|----2------------|-----------------|-----------------|
D|-----------------|0-----------0-0--|--2-------2------|-----------------|
A|--2--------------|-----------------|0---0---------0--|--2--------------|
E|0----------------|-----------------|-----------------|3---3------------|

  Em                D                 Am7               Em/G
e|3----------------|--------2--------|-----------------|-----------------|
B|5-----0---0------|3-----3----------|1-----1----------|6----------------|
G|4----------------|2---2------------|0----------------|5----------------|
D|-----------------|------------0-0--|----------2------|6----------------|
A|-----------------|-----------------|--------------0--|-----------------|
E|-----------------|-----------------|-----------------|-----------------|




************************************

| /   slide up
| \   slide down
| h   hammer-on
| p   pull-off
| ~   vibrato
| +   harmonic
| x   Mute note
| b   Bend
| pb  Pre-bend
| br  Bend release
| pbr Pre-bend release
| brb Bend release bend

************************************

1979 intro Tabs – Freedom Fry

  I've ever done and I was just wondering if I did it correctly, so please give some
feedback. It's only the first few lines so that's why I'm just doing it as an intro.


||TUNING : Standard (EADGBE)||



E|------2------2------2------3-|
B|-----------------------------|
G|----0------0------0------0---|
D|-----------------------------|
A|-----------------------------|
E|-3------3------3------3------|

E|-----------------------------|
B|------3------3------3------1-|
G|----0------0------0------0---|
D|-----------------------------|
A|----------------------3------|
E|-3------3------3-------------|

E|-----------------------------|
B|------1------1------1------0-|
G|----0------0------0------0---|
D|-----------------------------|
A|-3------3------3------3------|
E|-----------------------------|

E|-----------------------------|
B|------0------0------0------0-|
G|----0------0------0------0---|
D|-----------------------------|
A|-3------3------3-------------|
E|----------------------3------|

PLEASE GIVE FEEDBACK :)

Angry All The Time intro Tabs – Tim McGraw

 -------------------------------------------------------------------------------
                             Angry all the time- Tim McGraw
-------------------------------------------------------------------------------
:Jébb


Tuning: Standar

e|-----------------------------2-------0------------0--------------------------|
B|---------3/5---5---3/5\3-----2h3-----0----3/5\3---2--------------------------|
G|---------4/6---6---4/6\4-----2-------4----4/6\4---2--------------------------|
D|---------0-----7-------------2h4-----2------------2--------------------------|
A|-----0-----------------------2-------2------------0--------------------------|
E|-0h2---------------------------------0---------------------------------------|

Here's the intro!
Enjoy

************************************

| \   slide up
| /   slide down
| h   hammer-on


************************************

Roary The Racing Car Theme intro Tabs – Misc Television

 -------------------------------------------------------------------------------
                             Roary The Racing Car Theme
-------------------------------------------------------------------------------
: Daniel Bis
 danbis1999

Tuning: Standard

E|--------------------------------------------------------
B|--10-------------------------------10-------------------
G|------9--9--9--9--7--------------------9--9--9--9--7----
D|---------------------7--------------------------------7-
A|--------------------------------------------------------
E|--------------------------------------------------------
 ♫ Roar-y The Ra-c-ing Car         Roar-y My num-ber one star ♫

E|---------------------------------------------------------
B|---------------------------------------------------------
G|-7--7--7--7-----9--9--9--9-----7--7--7--7-----9--9--9--9-
D|---------------------------------------------------------
A|---------------------------------------------------------
E|---------------------------------------------------------
 ♫ He's comin' to the line      Watch out Roary!
               Lookin Real fine               They're right behind ya!
                                                                     Come on! ♫
-Repeat-


Yeah that's about it :)
Best to listen to the theme on YouTube as well
Message me if needs changes
Thanks

Lucky One intro Tabs – Simple Plan Vsion 2

 -------------------------------------------------------------------------------
                             Lucky One - Simple Plan
-------------------------------------------------------------------------------
: spvale
 valentinatom@live.it

Capo on 4th

Intro:

e|---------------------------------------------------------------------------|
B|-----------0-----------------0-----------------0-----------------0---------|
G|-----0--------0--------0--------0--------0--------0--------0--------0------|
D|--2-----2--------2--0-----0--------0--2-----2--------2--0-----0--------0---|
A|--2-----------------2-----------------3-----------------2------------------|
E|--0-----------------3-----------------0-----------------3------------------|

------------------------------------------------------------------------------

This is the "mini-solo" at the end of any chorus: 

e|---------------------------------------------------------------------------|
B|--1--0--------------1--0---------------------------------------------------|
G|--0-----2-----0--2--------2------------------------------------------------|
D|--0--------4---------------------------------------------------------------|
A|--2------------------------------------------------------------------------|
E|--3------------------------------------------------------------------------|

Please guys correct me if I'm wrong, it's my first tab :D

Go To Her intro Tabs – Jefferson Airplane

 -------------------------------------------------------------------------------
                        GO TO HER - Jefferson Airplane
-------------------------------------------------------------------------------
: sezar
 keanu-rimedorf@hotmail.com

Tuning: Standart

Am - Em - Am - D -

e|-0-1-0-----------|
B|-------3-1-------|
G|-----------2-----|
D|-------------2-0-|
A|-----------------|
E|-----------------|

Am - Em - Am - D -

e|-----------5-3-5-|
B|-5-3-1-3-1-------|
G|-----------------|
D|-----------------|
A|-----------------|
E|-----------------|

Am - Em - Am - D -

e|-5-3-0-----------0---------------|
B|-------3-1---------3-1-3-1-------|
G|-----------2-0-2-----------2-0-2-|
D|---------------------------------|
A|---------------------------------|
E|---------------------------------|


************************************

| /   slide up
| \   slide down
| h   hammer-on
| p   pull-off
| ~   vibrato
| +   harmonic
| x   Mute note
| b   Bend
| pb  Pre-bend
| br  Bend release
| pbr Pre-bend release
| brb Bend release bend

************************************

Dont Slip Away intro Tabs – Jefferson Airplane

 -------------------------------------------------------------------------------
                        DON'T SLIP AWAY - Jefferson Airplane
-------------------------------------------------------------------------------
: sezar
 keanu-rimedorf@hotmail.com

Tuning: Standart

e|--5/11-11\9--9---9\7-7\5-5-------------------------------------------------|
B|--7/12-12\10-10-10\9-9\7-7-------------------------------------------------|
G|---------------------------------------------------------------------------|
D|---------------------------------------------------------------------------|
A|---------------------------------------------------------------------------|
E|---------------------------------------------------------------------------|

************************************

| /   slide up
| \   slide down
| h   hammer-on
| p   pull-off
| ~   vibrato
| +   harmonic
| x   Mute note
| b   Bend
| pb  Pre-bend
| br  Bend release
| pbr Pre-bend release
| brb Bend release bend

************************************

The Man Who Would Be King intro Tabs – Iron Maiden Vsion 2

 -------------------------------------------------------------------------------
                             The Man Who Would Be King - Iron Maiden
-------------------------------------------------------------------------------
: Kyle Zamory

Tuning: Standard

. submission. Enjoy!

************************************

| /   slide up
| \   slide down
| h   hammer-on
| p   pull-off
| ~   vibrato
| +   harmonic
| x   Mute note
| b   Bend
| pb  Pre-bend
| br  Bend release
| pbr Pre-bend release
| brb Bend release bend

************************************

e|--------------------------10-----------------------------------------------|
B|-----------10---12---13--------12---13-------------------------------------|
G|-----------------------------------------12--------------------------------|
D|---------------------------------------------------------------------------|
A|---------------------------------------------------------------------------|
E|---------------------------------------------------------------------------|

e|--------------------------10-----------------------------------------------|
B|-----------10---12---13--------12--------10--------------------------------|
G|------------------------------------12-------------------------------------|
D|---------------------------------------------------------------------------|
A|---------------------------------------------------------------------------|
E|---------------------------------------------------------------------------|
                                                                                    X2
e|--------------------------10---12---13--------10---------------------------|
B|-----------10---12---13------------------13--------12----------------------|
G|---------------------------------------------------------------------------|
D|---------------------------------------------------------------------------|
A|---------------------------------------------------------------------------|
E|---------------------------------------------------------------------------|

e|-----------13---12-H-13-P-12-P-10---8-H-10-P-8-----------------------------|
B|-------------------------------------------------12---8-H-10-P-10----------|
G|--------------------------------------------------------------------9------|
D|---------------------------------------------------------------------------|
A|---------------------------------------------------------------------------|
E|---------------------------------------------------------------------------|

Fly intro Tabs – Maddie And Tae Vsion 2

 -------------------------------------------------------------------------------
                             SONG NAME - Band Name
-------------------------------------------------------------------------------
:


Tuning: Standard

Capo 5

e|------------------------------------------------------------------------------------|
B|--------1-------1-------1------1--------1--------1-----------1----------------------|
G|------------------------------------------------------------------------------------|
D|------------------------------------------------------------------------------------|
A|--3---------3-------3-------3------3---------3--------3-----------------------------|
E|------------------------------------------------------------------------------------|

e|--------0--------0-------0------0------0--------0--------0--------------------------|
B|------------------------------------------------------------------------------------|
G|------------------------------------------------------------------------------------|
D|------------------------------------------------------------------------------------|
A|--2---------2-------2------2------2-------2---------2-------------------------------|
E|------------------------------------------------------------------------------------|

e|-------------------------------------------------------------------------------------|
B|--------1-------1-------1------1-------1-------1------1---------1--------------------|
G|-------------------------------------------------------------------------------------|
D|-------------------------------------------------------------------------------------|
A|--0---------0-------0-------0------0-------0------0--------0-------------------------|
E|-------------------------------------------------------------------------------------|

e|-------------------------------------------------------------------------------------|
B|------1--------1-------1-------1-------1--------1---------1---------1----------------|
G|-------------------------------------------------------------------------------------|
D|-------------------------------------------------------------------------------------|
A|--1-------1--------1------1--------1--------1---------1--------1---------------------|
E|-------------------------------------------------------------------------------------|


************************************

| /   slide up
| \   slide down
| h   hammer-on
| p   pull-off
| ~   vibrato
| +   harmonic
| x   Mute note
| b   Bend
| pb  Pre-bend
| br  Bend release
| pbr Pre-bend release
| brb Bend release bend

************************************

Over And Over Again intro Tabs – Nathan Sykes

 Hi! My name is Jack and this is my first ever tab contribution to ultimate guitar.
I looked at the chords for this and I realized that there wasn't a tab for the 
song that suits the melody. So I decided to make up my own tab. This is my first
ever tab so I'm sorry if this isn't 100% accurate.
Thank you!
Capo 1
Chords: D,Am,Em+G 

     D                             Am                                      Em
e|---------2---------2------------------------0------------0-----------------------------0------------------|
B|-----3---------3----------3-------------1------------1-----------1----------------------------------------|
G|--2--------2----------2--------------------------------------------------------0--------------0-----------|
D|------------------------------------2-----------2----------2----------------------------------------------|
A|-----------------------------------------------------------------------------2---------------2------------|
E|----------------------------------------------------------------------------------------------------------|



         G                                                  (Extra part)listen to the song to hear it
e|-------------------------------------------------| |-------------------------------------------------------|
B|---------------0---------------0-----------------| |----------------0--------------------------------------|
G|-------------------------------------------------| |------------------0------------------------------------|
D|----------0---------------0--------------0-------| |--------------------0----------------------------------|
A|-------------------------------------------------| |-------------------------------------------------------|
E|------3--------------3--------------3------------| |-------------------------------------------------------|

^Goes back to the start



[Verse 1]
         
         D
From the way you smile
       Am
To the way you look
    Em
You capture me
   G
Unlike no other
         D
From the first hello
             C
Yeah, that's all it took
       Em
And certainly
  G
We had each other

[Prechorus]
    D       Am
And I won't leave you
Em        G
Always be true
 D          Am         G   G
One plus one, two for life
                  D
Over and over again

[Chorus]
                       Bm
So, don't ever think I need more
                    Em
I've got the one to live for

No one else will do, and
    A/D
I'm telling you
                          D
Just put your heart in my hands
                     Bm
Promise it won't get broken
                        Em
We'll never forget this moment

It will stay brand new
       A/D
'Cause I'll love you

Over and over again

D Am Em G

Over and over again


[Verse 2]
         D
From the heat of night
       Am
To the break of day
     Em
I'll keep you safe
    G
And hold you forever.
       D 
And the sparks will fly
            Am
They will never fade
       Em             G
'Cause every day gets better and better

[Prechorus]
    D       Am
And I won't leave you
Em        G
Always be true
 D          Am         G   G
One plus one, two for life
                  D
Over and over again

[Chorus]
                       Bm
So, don't ever think I need more
                    Em
I've got the one to live for

No one else will do, and
    A/D
I'm telling you
                          D
Just put your heart in my hands
                     Bm
Promise it won't get broken
                        Em
We'll never forget this moment

It will stay brand new
       A/D
'Cause I'll love you

Over and over again

D Am Em G

Over and over again

D Am Em G

[Bridge]
D
Girl when I'm with you
  Am
I lose track of time
Em
When I'm without you
       G
You're stuck on my mind
     D
I'll be all you need
          Am
Until the day that I die
     Em
I'll love you
G                 D
Over and over again

[Chorus]
                       Bm
So, don't ever think I need more
                    Em
I've got the one 

Sugar intro Tabs – Robin Schulz V6

 -------------------------------------------------------------------------------
                             SUGAR - Robin Schulz
-------------------------------------------------------------------------------
: Lele
 raffaele.benedetti

CAPO 1
     
      Am                  Em              C      D       Am   
e----------------------------------------------------------------------------|
B----------------------------------------------------------------------------|
G-------5---5h7p5------------------------------------------------------------|
D---------7-------7-5-------5-5-5h7p5-------2------3-------7----7h9p7---5----|
A-------------------------7-----------7-7\3---3--5----5-------------------7--|
E-----5--------------------------------------------------5---5---------------|



************************************

| /   slide up
| \   slide down
| h   hammer-on
| p   pull-off
| ~   vibrato
| +   harmonic
| x   Mute note
| b   Bend
| pb  Pre-bend
| br  Bend release
| pbr Pre-bend release
| brb Bend release bend

************************************

The Best Day intro Tabs – Atmosphere

 -------------------------------------------------------------------------------
                             The Best Day - Atmosphere
-------------------------------------------------------------------------------
: SamBrolo
 sam.chaos@live.co.uk

Tuning: Standard

Funky Atmosphere track from "To All My Friends..."
This is the little riff that is played throughout.

e|------------------------13~~-----------------------------------------------|
B|----14b15--14--------------------------------------------------------------|
G|----------------14--13-----------------------------------------------------|
D|---------------------------------------------------------------------------|
A|---------------------------------------------------------------------------|
E|---------------------------------------------------------------------------|


...And the chords


          C#    C#7th          F#     F#m
 e        4        4           2        2       
 B        6        6           2        2
 G        6        4           3        2
 D        6        6           4        4
 A        4        4           4        4
 E        x        x           2        2


************************************

| ~   vibrato
| x   Mute note
| b   Bend

************************************

No Good intro Tabs – Kaleo

 -------------------------------------------------------------------------------
                               NO GOOD - Kaleo
-------------------------------------------------------------------------------
: phil


Tuning: standard eadgbe

this is basically the riff which is played throughout the song.

chords used are barred E, G and A

Song starts with simple chords:
(listen to the song for the timing, its pretty easy actually)

E G E   E G E    E G E    E E    E G E    E E    E G E

e|-3b4br0---------------------3b4br0---5b6--3---0---0-----3b4br0---------------------| 2x
B|-----------0----------------------------------3------------------0-----------------|
G|-------2-2---2p0---------------------------------------------2-2---2p0-----2-2p0---|
D|-----------------2p0-2-------------------------------------------------2p0-------2-|
A|-----------------------------------------------------------------------------------|
E|-----------------------------------------------------------------------------------|



************************************

| /   slide up
| \   slide down
| h   hammer-on
| p   pull-off
| ~   vibrato
| +   harmonic
| x   Mute note
| b   Bend
| pb  Pre-bend
| br  Bend release
| pbr Pre-bend release
| brb Bend release bend

************************************

Polybridge – Track 3 intro Tabs – Misc Computer Games

 -------------------------------------------------------------------------------
                          Track 3 - Polybridge Soundtrack
-------------------------------------------------------------------------------
: Elliot Kempson
 elliotk25

Tuning:EADGBe

e|---------------------------------------------------------------------------|
B|---------------------------12---12h14-------------14-----------------------|
G|--------------9---13---11----------------------13-14---14--13--------------|
D|--------------9--------13-------------14----------14-----------------------|
A|---------9h11----------14-------------14--16-------------------------------|
E|-12--12--------------------------------------------------------------------|


NOTE: I do not own Polybridge or the song, I'm just a fan :)
I don't own the video either, but here it is: https://youtu.be/f4-pitkxPLw
************************************

| /   slide up
| \   slide down
| h   hammer-on
| p   pull-off
| ~   vibrato
| +   harmonic
| x   Mute note
| b   Bend
| pb  Pre-bend
| br  Bend release
| pbr Pre-bend release
| brb Bend release bend

************************************

Pacify Her intro Tabs – Melanie Martinez

 So this is my first tab, and I hope you like it!                        
Email: munya1004
E|----1-----0---0---------------------1-----0--------------------|         
B|--3-----1---1-------1-----1-------3-----1---1----0-------1--1--|         
G|2-----2-----------2-----2-----2-2-----2--------0-------2--2----|        
D|----------------3-----3-----3----------------2-----2-3---------|             
A|---------------------------------------------------------------|         
E|---------------------------------------------------------------|