Tag: its

For What Its Worth chords by Liam Gallagher

For What It's Worth - Liam Gallagher

Song only came out less than 2 hours ago so it won't be perfect but hopefully near enough

Chords used

Am: x02210
G: 320033
F: 133211
C: x32010
C/B: x22010
D: xx0232
Em: 022000
G/F#: 200233
Csus4: x33010
Csus2: x30010
D/F#: 2x023x
G7: 320001

[Verse 1]
Am     G             F               C    C/B
In my defence all my intentions were good
Am               G                   F             G
and heaven knows a place somewhere for the misunderstood
D                    C                F            G
you know id give you blood if it'd be enough

[Verse 2]
Am           G                     F      C    C/B
devils on my doorstep since the day i was born
Am                 G              F        G
its hard to find a sunset in the eye of a storm
D                    C                      F
but im a dream up by design and ill know in time
               G      G7
we'll put this behind


[Chorus]
C             C/B    Am              G
For what it's worth im sorry for the hurt
         F             Em            D            G
ill be the first to say i made my own mistakes
C             C/B    Am              G
for what it's worth i know its just a word
          D/F#
and words betray
Csus4 C   Csus4 C Csus2 C
sometimes we lose our way
Am            G    F
for what it's worth

G     C     C/B

[Verse 3]
Am           G               F           C       C/B
behind the lands is a poison picture you paint
Am              G                     F            G
and let's not pretend you were ever searching for saints
D                   C                 F           G
cos ive been crucified for just being alive

[Verse 4]
Am                G                 F         C      C/B
somewhere in the crossfire of this whispering war
Am                G                F            G
seems like i've forgot just what i was fighting for
D                  C                      F
but underneath my skin there's a fire within
        G    G7
still burning


[Chorus]
C             C/B    Am              G
For what it's worth im sorry for the hurt
         F             Em            D            G
ill be the first to say i made my own mistakes
C             C/B    Am              G
for what it's worth i know its just a word
          D/F#
and words betray
Csus4 C   Csus4 C Csus2 C
sometimes we lose our way
Am            G    F
for what it's worth

G     C     C/B

[Bridge]
Am                F                   C       C/B
the first bird to fly gets all the arrows
Am                     F                     C       C/B
let's leave the past behind with all our sorrows
Am                   F                    C    C/B   Am
I'll build a bridge between us and I'll swallow my pride

G     G/F#     F       G

[Chorus]
C             C/B    Am              G
For what it's worth im sorry for the hurt
         F             Em            D            G
ill be the first to say i made my own mistakes
C             C/B    Am              G
for what it's worth i know its just a word
          D/F#
and words betray
Csus4 C   Csus4 C Csus2 C
sometimes we lose our way
Am            G    F         G     C
for what it's worth

As If Its Your Last 마지막처럼 chords by BLACKPINK

[Intro]

E|------------------------------------------|
B|------------------------------------------|
E|------------------------------------------|
D|------------------------------------------|(4x)
A|--7-3---7-3---7-3---7-8-10----------------|
E|------3-----3-----3-----------------------|

[Verse 1]
E             Em              E
neo mwonde jakku saenggakna
             Em
jajonsim sanghae aega ta
E                Em                    E
eolguli tteugeobgo gaseumeun gyesok ttwieo
                  Em                E
nae momi mamdaero an dwae eojireowo

[Verse 2]
E              Em         E
neon han jumui morae gata
               Em
jabhil deut jabhiji anha
E                     Em                    E
neon swibji anheun geol geuraeseo deo kkeullyeo
                  Em
nae mami mamdaero an dwae eoieobseo

[Pre-Chorus]
Em               G
jigeum neoreul wonhaneun
           D            C
nae sumgyeoli neukkyeojini
        Em
neol barabogo isseodo
G
Missing you
       D                      C
seotun nal Won’t you set me free

[Chorus 1]
            C                G
Baby nal teojil geotcheoreom anajwo
         D                Em
geuman saenggakhae mwoga geuri eoryeowo
C                   G                D
geojitmalcheoreom kiseuhaejwo naega neoege
      Em
majimak sarangin geotcheoreom

[Chorus 2]
C                     G
majimakcheoreom ma-ma-majimakcheoreom
  D                    Em
majimak bamin geotcheoreom Love
C                     G
majimakcheoreom ma-ma-majimakcheoreom
       D                       Em
naeil ttawin eobtneun geotcheoreom Love

[Rap]
E
Uh Imma fall in love baby
E
You gon finna catch me
E
Uh give you all of this baby
E
Call me pretty and nasty
E
Cause we gonna get it
E
my love you can bet it on
E
black we gon double
E
the stack on them whoa!
E
I be the Bonnie and
E
you be my Clyde
E
We ride or die
E
Xs and Os

[Pre-Chorus]
Em             G
siganeun heulleoganeunde
     D            C
maeumman geubhaejiji
      Em
nae sesangeun neo hanaman
G
Missing you
       D                      C
seotun nal Won’t you set me free

[Chorus 1]
            C                G
Baby nal teojil geotcheoreom anajwo
         D                Em
geuman saenggakhae mwoga geuri eoryeowo
C                   G                D
geojitmalcheoreom kiseuhaejwo naega neoege
      Em
majimak sarangin geotcheoreom

[Chorus 2]
C                     G
majimakcheoreom ma-ma-majimakcheoreom
  D                    Em
majimak bamin geotcheoreom Love
C                     G
majimakcheoreom ma-ma-majimakcheoreom
       D
naeil ttawin eobtneun geotcheoreom Love

[Bridge]
Em
One two three
     G
saeroun sijakiya
        D             C
jeoldae dwidolabojin anheul geonikka
      Em
nal neoege deonjimyeon
       G
neoneun nal kkok jabajwo
      D                   C
sesangeun uril kkeokkji mothal tenikka

N.C.
BLACKPINK in your area

[Chorus 1]
            C                G
Baby nal teojil geotcheoreom anajwo
         D                Em
geuman saenggakhae mwoga geuri eoryeowo
C                   G                D
geojitmalcheoreom kiseuhaejwo naega neoege
      Em
majimak sarangin geotcheoreom

[Chorus 2]
C                     G
majimakcheoreom ma-ma-majimakcheoreom
  D                    Em
majimak bamin geotcheoreom Love
C                     G
majimakcheoreom ma-ma-majimakcheoreom
       D                       Em
naeil ttawin eobtneun geotcheoreom Love

Its Not Me chords – Stonewall Jackson

 G D7 G 
It's not me that you speak to when you're talking in your sleep

          D7 G 
It's not me I can tell by all the secrets that you keep

                    G7 C 
It's not me you're always dreaming of

           G D7 G 
Oh how it hurts to know it's your new love


          D7 G 
It's not me that you're kissing someone else is on your mind

          D7 G 
It's not me that you're missing cause I'm with you all the time

                    G7 C 
It's not me and it tears my soul apart

             G D7 G 
To have you hold me while he is in your heart


          D7 G 
It's not me you're pretending when you say that I love you

          D7 G 
It's not me I can tell by all the little things you do 

                    G7 C 
You're in love and any fool can see

               G D7 G 
Your heart is breaking for someone it's not me

 C G D7 G 
Your heart is breaking for someone it's not me

Its Beginning To Look A Lot Like Christmas chords – Michael Bublé Vsion 2

 This version is extremely accurate to the recorded version on Bublé's album, "Christmas." The chords are taken
directly from the sheet music. The intro goes along with the slow string part at the beginning of the song. 
The transitions to the dim chords can be quite difficult, but practice will make it smoother! Good luck 
and enjoy!



It’s Beginning To Look A Lot Like Christmas   Michael Bublé

Intro:
 Amaj7 Emaj9 Gmaj7 F#m B7 

Verse 1
      Eadd9 Amaj7 Emaj9 E6 
It's beginning to look a lot like Christmas,
 Emaj7 G#7 Amaj7 C#7 
Everywhere you go
        F#m7 B 
Take a look in the five-and-ten, 
      E6 Fdim7 
It’s glistening once again,
      B Cdim7 C#m7 F#7 F#m7 B7 
With candy canes and silver lanes that glow

Verse 2
        Emaj7 Amaj9 Emaj7 E6 
It's beginning to look a lot like Christmas,
 Emaj7 G#7 Amaj7 C#7 
Toys in every store
         F#m7 Gdim7 
But the prettiest sight to see,
        E6 C#7 
Is the holly that will be,
        F#m7 B7 Emaj7 
On your own front door

Bridge
           G#7 C#7 G#7 C#m 
A pair of hop along boots and a pistol that shoots is the wish of Barney and Ben
 F#7 B F#7 B 
Dolls that will talk and will go for a walk is the hope of Janice and Jen
     B7 Fdim7 B7 B 
And Mom and Dad can hardly wait for school to start again

Verse 3 
     Eadd9 Amaj7 Emaj9 E6 
It's beginning to look a lot like Christmas, 
 Emaj7 G#7 Amaj7 C#7 
Everywhere you go 
         F#m7 B 
There's a tree in the Grand Hotel
  E6 Fdim7 
One in the park as well,
           B Cdim7 C#m7 F#7 F#m7 B7 
It’s the sturdy kind that doesn't mind the snow

Verse 4
       Emaj7 Amaj9 Emaj7 E6 
It's beginning to look a lot like Christmas
 Emaj7 G#7 Amaj7 C#7 
Soon the bells will start
         F#m7 Gdim7 
And the thing that will make them ring 
        E6 C#7 
Is the carol that you sing,
         F#m7 B7 Emaj7 
Right within your heart

Interlude
 Cadd9 Fmaj7 Cmaj9 Cmaj7  |  Cmaj9 E7 Fmaj7 A7 Dm7    Fmaj7-G7    Cmaj9 C#dim7  | G6-G#dim7-Am7-D    G B 

Outro
 B Emaj7 Amaj9 Emaj9 Emaj7 G#7 B A C#7 C#7#9 
It's beginning to look a lot like Christmas, toys in every store
         F#m7 Gdim7 G#m7 D9 C#7sus C#7 
But the prettiest sight to see is the holly that will be,
         F#m7 B7     D#m7-G#7-C#7sus-C#7
On your own front door
            F#m7 A/B B7 Emaj7  
Sure, it’s Christmas once more

Its On chords – Broncho

 It’s On by Broncho


Intro: (x2) 

 C#    /   D A A     /    D A  


Verse:

 C# D A D A  
If you show up in my room with no clothes on, it's on

 C# D A D A 
If you try to bust me out with your bail bonds on, it's on

 C# D A  
We could go to L.A., we could drink manhattans, 

 A C# D A 
We could go to Chez Jays, we could get old fashion

 A D A  
It's on


Bridge: (x2) 

 C#    /   D A A     /    D A  


Verse: 

 C# D A 
If you try to cuddle up you get kicked out of class

   A C# D A D A                      
And if you cuddle again you cut out last

 C# D A  
Larry get a show at a touch and tell

                                                     C# D A 
When he's bringing you down, he'll bring you to hell

         D A  
It's on


Breakdown: 

 A 
Larry get a show at a touch and tell

 A 
Larry get a show at a touch and tell

 A 
Larry get a show at a touch and tell

 A 
Larry get a show at a touch and tell

 A 
Larry get a show at a touch and tell

 A 
Larry get a show at a touch and tell

 C# D A      
Larry get a show at a touching me 


Chorus: 

 C# D A D A 
Billy told Mary told Tommy told sue it's on

 C# D A D A  
Larry told Barry told me told you it's on

 C# D A            
I can only imagine we'd all be fine 

                                              D A C# D A  
When you're dressed, when you're dressed to the nines

        D A  
It's on


Outro: 


 C# D A D A       
If you try to bail me out, it's on

 C# D A D A       
If you try to bail me out, it's on

 C# D A D A       
If you try to bail me out, it's on

 C# D A      
If you try to bail me out 

Dont Dream Its Over Acoustic chords – Crowded House V2

 Standard Tuning EADGBe 


 D#sus2  - x68866


Intro:  D#sus2 


Verse 1: 

 D#sus2 Cm G# G    
There is freedom within there is freedom without, Try to catch the deluge in a paper cup
 D# Cm G#                                    
There's a battle ahead many battles are lost, but you'll never see the end of the road-
               G 
-while you're travelling with me


Chorus 1: 

 G# A# D# Cm 
Hey now, hey now don't dream it's over
 G# A# D# Cm 
Hey now, hey now when the world comes in
 G# A# D# Cm 
They come, they come, to build a wall between us
 G# G# A# 
We know they won't win


Verse 2:

 D#sus2 Cm G# G       
Now Im towing my car,theres a hole inthe roof,my possessions r causin me suspicion but theresno proof
 D# Cm G# G 
In the paper today tales of war and of waste, but you turn right over to the T.V. page


Chorus 2: 

 G# A# D# Cm 
Hey now, hey now don't dream it's over
 G# A# D# Cm 
Hey now, hey now when the world comes in
 G# A# D# Cm 
They come, they come, to build a wall between us
 G# G# A# 
We know they won't win


Verse 3:

 D#sus2 Cm G# G 
Now I'm walking again to the beat of a drum, and I'm counting the steps to the door of your heart
 D# Cm G# G   
Only the shadows ahead barely clearing the roof, get to know the feeling of liberation and relief


Chorus 3: 

 G# A# D# Cm 
Hey now, hey now don't dream it's over
 G# A# D# Cm 
Hey now, hey now when the world comes in
 G# A# D# Cm 
They come, they come, to build a wall between us
 G# G# A# 
We know they won't win




(end)

Its Tricky Tabs – Itchy Poopzkid V3

 -------------------------------------------------------------------------------
                             ITs TRICKY - Itchy Poopzkid
-------------------------------------------------------------------------------
: obersepp

Tuning: Drop D

Chorus Intro 
e|---------------------------|
B|---------------------------|
G|---------------------------|
D|---8-8-8-6-6-6-8-8-3-------|
A|---8-8-8-6-6-6-8-8-3-------|
D|---8-8-8-6-6-6-8-8-3-------|


Chorus Part 1
e|-----------------------------------|
B|-----------------------------------|
G|-----------------------------------|
D|--3--3--3----2-3---3---3-1-2-3-----|
A|--3--3--3----2-3---3---3-1-2-3-----|
D|--3--3--3----2-3---3---3-1-2-3-----|
Chorus Part 2
e|-----------------------------------|
B|-----------------------------------|
G|-----------------------------------|
D|--3-6-3-6-6-8-8-8-6-6-6-8-3--------|
A|--3-6-3-6-6-8-8-8-6-6-6-8-3--------|
D|--3-6-3-6-6-8-8-8-6-6-6-8-3--------|


Bridge Part 1
e|-----1----------1------------1-----------------------|
B|-----------------------------------------------------|
G|-----------------------------------------------------|
D|--3----3---2-3----3---8-2-3----3-----8-8-8-6-6-6-8-3-|
A|--3--------2-3--------8-2-3----------8-8-8-6-6-6-8-3-|
D|--3--------2-3--------8-2-3----------8-8-8-6-6-6-8-3-|


Bridge Part 2
e|-----------------------------------------------------|
B|-----------------------------------------------------|
G|-----------------------------------------------------|
D|--3*-3*---3*-3*----2-3-----3*-3*-----8-8-8-6-6-6-8-3-|
A|--3*-3*---3*-3*----2-3-----3*-3*-----8-8-8-6-6-6-8-3-|
D|--3*-3*---3*-3*----2-3-----3*-3*-----8-8-8-6-6-6-8-3-|

3* = one full ocatave deeper (use some effekt for that)


Order:
Strum one
0
0
0
3
3
3
on first note (this SPEECH..)

Chorus Part 1 (it's tricky to rock...)
Chorus Part 2 

Verse1 (only bass guitar)

Chorus Intro
Chorus Part 1 
Chorus Part 2

Verse 2

Chorus Part 1
Chorus Part 2

Solo (just use your pick and scratch on the strings)

Bridge Part 1
Bridge Part 2

3rd Verse (play this for the half of it)
Bridge Part 1
Bridge Part 2

Chorus Part 1
Chorus Part 2

Maybe Its The Power Of Love chords – Blackjack

 SONG:   MAYBE IT'S THE POWER OF LOVE
ARTIST: BLACKJACK
TAB BY: DON CZARSKI
EMAIL:  GUITARZAN7@HOTMAIL.COM


            MAYBE IT'S THE POWER OF LOVE
                    BLACKJACK


INTRO:
          *RIFF* 
   Dsus4 D 
E -----------------------
B --------8------8--7----
G ------7------7---------
D ----7------7-----------
A --5--------------------
E -----------------------


VERSE:
          Am Fmaj7 G 
When it comes to giving you the best of me
 F G Fmaj7 G 
  I don't know why, I don't know why
                      Am 
I don't even have to try

  E Am Fmaj7 
When it comes to holding true
                G F  
These words I say
    G Fmaj7 G 
I look at you, one look at you
                     Am   
Can I turn my head away


PRE-CHORUS:
            F 
With the sound of your voice
            G 
Like the whispering wind
             F  
Don't you know I'll be there
          G               D*
When you call, anytime you call

   Dsus4 D 
E -----------------------
B --------8------8--7----
G ------7------7---------
D ----7------7-----------
A --5--------------------
E -----------------------


CHORUS:
  A Fmaj7 
Maybe it's the power of love
  A Fmaj7 G 
Maybe ya can feel it when you get enough
  A Fmaj7 
Maybe it's the power of love
         D*
I don't know

   Dsus4 D 
E -----------------------
B --------8------8--7----
G ------7------7---------
D ----7------7-----------
A --5--------------------
E -----------------------


VERSE:
          Am Fmaj7 
When it comes to needing you
              G F  
I call your name
      G Fmaj7 G 
And you'll be there, you'll be right there
                              Am E   
Shining through the pouring rain

  E Am Fmaj7 
When it comes to seeing through
             G F G Fmaj7 
The fool in me,  one thing I found
                  G 
One thing I've found
                          Am 
Lover, you never let me down


PRE-CHORUS:
            F 
When the sound of your voice
       G 
Oh, whispering wind
          F 
Lets me know you'll be there
        G               D*
When I call, anytime I call

   Dsus4 D 
E -----------------------
B --------8------8--7----
G ------7------7---------
D ----7------7-----------
A --5--------------------
E -----------------------


CHORUS:
  A Fmaj7 
Maybe it's the power of love
  A Fmaj7 G 
Maybe ya can feel it when you get enough
  A Fmaj7 
Maybe it's the power of love
         D* 
I don't know

   Dsus4 D 
E -----------------------
B --------8------8--7----
G ------7------7---------
D ----7------7-----------
A --5--------------------
E -----------------------


INSTRUMENTAL SOLO:
 G A Fmaj7 G F G Fmaj7 G Am E Em Am Fmaj7 G F G F G D 


CHORUS:
  A Fmaj7 
Maybe it's the power of love
  A Fmaj7 G 
Maybe ya can feel it when you get enough
  A Fmaj7 
Maybe it's the power of love
          D

Its Not Over Yet chords – For King And Country

 (No capo)


[Verse 1:]
 Em G 
They are inside your head
 G 
You got a voice that says
 C 
You won't get past this one
 C 
You won't win your freedom

             G 
It's like a constant war
         G 
And you want to settle that score
     C 
But you're bruised and beaten
         C 
And you feel defeated

[Pre-Chorus:]
 G Em D G 
This goes out to the heaviest heart

[Chorus:]
 C 
Oh, to everyone who's hit their limit
 G 
It's not over yet
 D 
It's not over ye-et
 C 
And even when you think you're finished
 G 
It's not over yet
 D 
It's not over ye-et
 C 
Keep on fighting
 Em 
Out of the dark
 D 
Into the light
 C 
It's not over
 C 
Hope is rising
 G 
Never give in
 D 
Never give up
 C 
It's not over
 C 
Yea-et-et, woah
 G D C 
Yea-et-et, woah

[Verse 2:]
 C 
Oh, game set match
 G D C 
It's time to put it in your past, oh
 C 
Feel the winter leavin'
      G D 
It's redemption season
 C 
Long live the young at heart (Here we are)
 C 
Cheers to a brand new start (Here we are)
 C Em 
We're revived and breathing
 G D 
To live a life of freedom


[Chorus:]
 C 
Oh, to everyone who's hit their limit
 G 
It's not over yet
 D 
It's not over ye-et
 C 
And even when you think you're finished
 G 
It's not over yet
 D 
It's not over ye-et
 C 
Keep on fighting
 Em 
Out of the dark
 D 
Into the light
 C 
It's not over
 C 
Hope is rising
 G 
Never give in
 D 
Never give up
 C 
It's not over
 C 
Yea-et-et, woah
 G D C 
Yea-et-et, woah

[Bridge:]
 G 
Life is a race we run
 G 
So run till the race is won
 C 
Don't you ever give up (Here we are)
 Em D 
Oh no never give up (Here we are)
 G 
Life is a race we run
 G 
So run till the race is won
 C 
Don't you ever give up (Here we are)
 Em D 
Oh no never give up (Here we are)

 C 
Oh, to everyone who's hit their limit
 C 
And even when you think you're finished

[Chorus:]
 C 
Oh, to everyone who's hit their limit
 G 
It's not over yet
 D 
It's not over ye-et
 C 
And even when you think you're finished
 G 
It's not over yet
 D 
It's not over ye-et
 C 
Keep on fighting
 Em 
Out of the dark
 D 
Into the light
 C 
It's not over
 C 
Hope is rising
 G 
Never give in
 D 
Never give up
 C 
It's not over
 C 
Yea-et-et, woah
 G D C 
Yea-et-et, woah

Its All Over Now chords – Saosin

 Saosin - It's All Over Now
 Rachel Lauren

 C 
Leave, go on and leave, you said
               Asus2 
Turn and walk away
            C 
Life's not worth it anymore
                                          Asus2 
You stopped shaking and you slowly faded away
            C 
Now you're lying on the floor

 C Asus2 
I can't hear your heart beating anymore, no
 C Asus2 G 
I can't hear your heart beating anymore, no

      F C Asus2 Am 
It's all over now
                 F C Am G 
What am I gonna do with all this time I set aside for you (aside for you)
   F C Asus2 Am 
I won't be needed now
                          F 
To pick up the phone and call you
                      G 
Like I'm supposed to know
               Dm 
You were all alone

 C 
Gone, memories gone
                  Asus2 
I know I was the one
           C G 
Who was ignoring you for way too long
 C 
I hope while sleeping
                       Asus2 
I know that if you're finding solid ground
             C 
You'll know everything is, everything is sound

 C Asus2 
I can't hear your heart beating anymore, now (everything is sound)
 C Asus2 G 
I can't hear your heart beating anymore, now

      F C Asus2 Am 
It's all over now
                 F C Am G 
What am I gonna do with all this time I set aside for you (aside for you)
   F C Asus2 Am 
I won't be needed now
                          F 
To pick up the phone and call you
                      G 
Like I'm supposed to know
               Dm 
You were all alone

 C Asus2 F G C Asus2 F G 
Maybe someday I can meet you there

      F C Asus2 Am 
It's all over now
                 F 
What am I gonna do
                 G 
What am I gonna do

      F C Asus2 Am 
It's all over now
                 F C Am G 
What am I gonna do with all this time I set aside for you
   F C Asus2 Am 
I won't be needed now
                          F 
To pick up the phone and call you
                      G 
Like I'm supposed to know
      F C Asus2 Am 
No I won't be needed now
                          F 
To pick up the phone and call you
                      G 
Like I'm supposed to know
               Dm 
You were all alone

Soapstone Mountain chords – Its A Beautiful Day

 Intro
 D A C G D A C G E    

Verse 1
                    D 
When I was just a boy
 A                                              
  We lived on the side of a mountain 
 G A A 
Right near the vale of a waterfall
 D                        
  When I was just a boy
 A A G# G         
  We lived in a one-room cabin
 G E 
One room full of love and that was all
                A 
(And that was all)

Chorus
 G A                  
Way back up on Soapstone Mountain
 G A                 
Way up high where the spirits run free
 G A                     
Way back up on Soapstone Mountain
         G A 
What a beautiful place to raise a little family

Verse 2
 D                        
  And in the morning mist
 A                                                           
  We would climb to the top of that mountain
 G A A 
And lie in the pools all covered with green
 D 
  Was like it’s just been kissed
 A A G# G 
  On the eyes by the tears of Jesus
 G E 
A more beautiful sight I've never seen
                    A 
(What a beautiful scene)

Chorus 2
 G A 
Way back up on Soapstone Mountain
 G A 
Way up high – why, it was heavenly
 G A 
Way back up on Soapstone Mountain
         G A 
What a wonderful place for you and me

Bridge
 G A 
You don't have to climb a mountain
 G A 
You don't have to swim the sea
 G A 
You don't have to build white tow-er-s 
 G A 
You are as happy as you seem

Interlude
 A                  Ends with  A B C# 

Chorus 3
 G A 
Way back up on Soapstone Mountain
 G A 
Way up high where the spirits run free
 G A 
Way back up on Soapstone Mountain
         G A 
What a beautiful day for you and me

Coda
 A G 
Oh-o-o-o-o-o-o   Oh-o-o-o-o-o-o    3 x’s

  C A D 

Parentheses () indicate a second voice 

Its Never Too Late chords – Ben Gibbard

 Song: It's Never Too Late
Artist: Ben Gibbard
: Crocky


I just watched the film Laggies and this is the song for the credits.
Turns out Ben Gibbard Scored the whole film and this is a new song he wrote for it.


Tabbed it from this vid - http://youtu.be/KaELgYmky9w

But this vid has better audio - http://youtu.be/4xAc5JkCq3Y

Check out the videos to see his strumming pattern, this tab is pretty loose.
As ever, all comments are welcome, hope you enjoy the song as much as I do.

Standard Tuning - Capo 5th

The chord shapes you need are...

 C  -  Cmaj9/B  -  Am  -  G  (open B-string) -  D  -  Em  -  B7  -  A7 

Ok Here we go.


Intro

 C   -   Cmaj9/B   -   Am   -   Am   |
                             | x2
 C   -   Cmaj9/B   -   G   -   G     |


 D   -   D   -   D   -   D 


Verse

 G Em 
Don't, don't turn around
         B7 C 
There's nothing left to be found
           G Em 
Where you feigned and played along
      B7 C 
In a place you thought you belonged

    G Em 
So when, when did you turn
 B7 C 
When did you wake this concern
          G Em 
But your shadow could not be outrun
    B7 C 
It defeats you before you've begun



Chorus
 G 
This book you never read
 C 
Is now long overdue
 G 
An errant satellite
 C 
That's lost behind the moon
 Em D C G A7 C 
But don't ever say that it's too late to cure your lonely heaaaart



Verse
 G Em 
Walk, quicken your pace
 B7 C 
Scale every wall and gate
 G Em 
No-one would hold you down
 B7 C 
Get lost, lost to be found


Chorus
 G 
This river never rests
 C 
It flows through you and me
 G 
We are the clouds above
 C 
We are the deepest sea

 Em D C G         
So don't ever say that it's too late to cure your lonely heart
 Em D C G         
Don't ever say that when it breaks it just feels shattered apart
 Em D C G A7 C 
Don't ever say that it's too late to cure your lonely heaaaaaaart


Outro

 G G G G C Cmaj9/B Am

Its You And Its I Tabs – Makthaverskan

 Makthaverskan - It's You And It's I
Track 2 "Makthaverskan" (2009).

 Isaac Murguia, December 2014.
Originally uploaded to Ultimate-Guitar.com
Contact: www.youtube.com/Goadiroth

INTRO:                         [x3]
e|--------------------|--------------------|
B|--------------------|--------------------|
G|--------3-5-5555323-|--------3-5-5555323-|
D|-333333-------------|-3-3-33-------------|
A|--------------------|--------------------|
E|--------------------|--------------------|

VERSE:
          [x3]
e|--------------------|----------------------|
B|--------------------|----------------------|
G|--------3-5-5555323-|--------3-5--55/-10-9-|
D|-3-3-33-------------|-3-3-33---------------|
A|--------------------|----------------------|
E|--------------------|----------------------|

CHORUS:
e|------------------------------|------------------------------|
B|------------------------------|------------------------------|
G|-7-77-9-10-9-5--5-5-5-5-5-5-5-|-5--55-10-9-7--7-7-7-7-9-10-9-|
D|------------------------------|------------------------------|
A|------------------------------|------------------------------|
E|------------------------------|------------------------------|

e|------------------------------|----------------------------|
B|------------------------------|----------------------------|
G|-7-77-9-10-9-5--5-5-5-5-5-5-7-|-5--55-10-9-7--7-7-7-7-9-10-|
D|------------------------------|----------------------------|
A|------------------------------|----------------------------|
E|------------------------------|----------------------------|

Repeat VERSE
Repeat CHORUS

BRIDGE:
e|------------------|-----------------|
B|------------------|-----------------|
G|------------------|--------5-55-323-|
D|-7-7-77-07-77-5-5-|-7-7-77----------|
A|------------------|-----------------|
E|------------------|-----------------|

Repeat VERSE
Repeat CHORUS
Repeat VERSE
Repeat CHORUS
Repeat BRIDGE

OUTRO:
e|------------------------|----------------|
B|------------------------|----------------|
G|--------3-5-555-3-2-3-2-|-23-333-3-2-3-2-|
D|-3-3333-----------------|----------------|
A|------------------------|----------------|
E|------------------------|----------------| [x2]

e|-------------------------|----------------|
B|-------------------------|----------------|
G|--------3-5-5555-3-2-3-2-|-23-333-3-2-3-2-|
D|-3-3333------------------|----------------|
A|-------------------------|----------------|
E|-------------------------|----------------|

e|-------------------------|----------------|--------|
B|-------------------------|----------------|--------|
G|--------3-5-555-3-2-3--2-|-23-333-3-2-3-2-|--------|
D|-3-3333------------------|----------------|-3------|
A|-------------------------|----------------|--------|
E|-------------------------|----------------|--------|

End. Please rate :D

Its Ok solo Tabs – Delirious

 -------------------------------------------------------------------------------
                             It's Ok - Delirious?
-------------------------------------------------------------------------------

Here's the solo to the song.  It's played with some delay, so you may want to listen to the song
to figure it out.

Tuning: Standard
e|-----------------|
B|--9--10--12--14--|
G|-----------------| Repeat this six times, then slide up to the 17 at the end (as shown below)
D|-----------------|
A|-----------------|
E|-----------------|

e|---------------------------------------------------------------------------|
B|--/17----------------------------------------------------------------------|
G|---------------------------------------------------------------------------|
D|---------------------------------------------------------------------------|
A|---------------------------------------------------------------------------|
E|---------------------------------------------------------------------------|


And that's it for the solo.


************************************

| /   slide up
| \   slide down
| h   hammer-on
| p   pull-off
| ~   vibrato
| +   harmonic
| x   Mute note
| b   Bend
| pb  Pre-bend
| br  Bend release
| pbr Pre-bend release
| brb Bend release bend

************************************

Its So Hard To Say Goodbye To Yesterday chords – Jason Mraz V3

 Jason Mraz – It’s So Hard To Say Goodbye To Yesterday

I felt the previous versions were good, but I also felt something was missing. 
So I added Am and changed G#m to G#, also I tried to put the chords in the correct places according to the song


 E B A E 
How do I say good bye to what we had
 A E E B 
The good times that made us laugh outweigh the bad
                E G# C#m B A 
I thought we'd get to see forever but forever's gone away
         E B A Am E 
It's so hard to say goodbye to yesterday

         E B A Am E 
I don't know where this road is going to lead
          A E E B 
All I know is where we've been and what we have been through
       E G# C#m B A 
If we get to see tomorrow, I hope it's worth all the wait
         E B A Am E 
It's so hard to say goodbye to yesterday

 E G#m C#m B A Am 
And I'll take with me the memories to be my sunshine after the rain
          E B A Am E 
It's so hard to say goodbye to yesterday
                          G#m C#m B A Am 
And I'll take with me the memories to be my sunshine after the rain
          E B A Am E 
It's so hard to say goodbye to yesterday
                          B A Am E 
It's so hard to say goodbye to yesterday



Hope you enjoyed it!

Its My Life chords – Animals V4

 Dm C Bb Dm C Bb Dm C Bb       
It's a hard world to get a break in
 C Dm C Bb C 
All the good things have been taken
     Dm C Bb        
But girl there are ways to make certain things pay
 C Dm C Bb 
Though I'm dressed in these rags I'll wear sable
      C D 
Some day
       
Hear what I...
        
 G F G 
say I'm gonna ride the serpent
 F G 
No more time spent sweatin' rent
            F G 
Hear my command I'm breakin' loose
             F G 
It ain't no use Holdin' me down
        F  
Stick around
     G 
But baby (but baby)
   G 
Remember (remember)

 C Dm F G 
It's my life and I'll do what I want
 C Dm F G 
It's my mind and I'll think what I want
 F G 
Show me I'm wrong
 F G 
Hurt you sometime
     F G F G 
But someday I'll treat you real fine

             Dm C Bb        
There'll be women and their fortunes
 C Dm C Bb C 
Who just love to mother orphans
     Dm C Bb        
Are you gonna cry, when I'm squeezin' 'em dry
 C Dm C Bb 
Takin' all I can get, no regrets
      C D 
When I

        G F G 
Openly lie  And leave only money
 F G            
Believe me honey, that money
 F G 
Can you believe, I ain't no saint
 F G 
Who complains So girl cut out
     F 
Any doubt
     G 
But baby (but baby)
   G 
Remember (remember)

 C Dm F G 
It's my life and I'll do what I want
 C Dm F G 
It's my mind and I'll think what I want
 F G 
Show me I'm wrong
 F G 
Hurt you sometime
     F G F G 
But someday I'll treat you real fine

 C Dm F G 
It's my life and I'll do what I want. Don't push me
 C Dm F G 
It's my mind and I'll think what I want. It's my life
 C Dm F G 
It's my life and I'll do what I want. And I can do what I want
 C Dm F G 
It's my mind and I'll think what I want. You can't tell me
 C Dm F G 
It's my life and I'll do what I want.

What Its Like chords – Everlast V2

 Artist: Everlast
Song: What it's like
Spotify: http://open.spotify.com/track/7pMVB2oz4Q4SlfTvvevNro
: hjelmgren
Tuning: Standard (EADGBe)

Info:  E  (xx0453)


Intro: x4

      Dm Fmaj7 C 
e|--------3--1--3p1------------0-0-------0-0--| 
B|------3------------3p0-------1---------1----| 
G|----2----------------------2----------------| 
D|--0----------------------3-----------2------| 
A|-----------------------------------3--------| 
E|--------------------------------------------| 


Verse 1:
 Dm Fmaj7 C Dm 
We've all seen a man at the liquor store beggin' for your change.
 Dm Fmaj7 C Dm 
The hair on his face is dirty, dread-locked, and full of mange.
 Dm Fmaj7 C Dm 
He asks a man for what he could spare, with shame in his eyes.
 Dm Fmaj7 C Dm 
"Get a job you fucking slob," is all he replies.
 Dm Fmaj7 C Dm 
God forbid you ever had to walk a mile in his shoes.
 Dm Fmaj7 C Dm 
'Cause then you really might know what it's like to sing the blues.


Chrous:
 Dm Fmaj7 C Dm 
Then you really might know what it's like...  (What it's like)
 Dm Fmaj7 C Dm 
Then you really might know what it's like...  (What it's like)
 Dm Fmaj7 C Dm 
Then you really might know what it's like...  (What it's like)
 Dm Fmaj7 C 
Then you really might know what it's like...  


Interlude:
 Dm E Dm E Dm E Dm Dm 


Verse 2:
 Dm Fmaj7 C Dm 
Mary got pregnant from a kid named Tom, that said he was in love.
 Dm Fmaj7 C Dm   
He said, "Don't worry about a thing, baby doll, I'm the man you've been dreaming of."
 Dm Fmaj7 C Dm 
But 3 months later he say he won't date her or return her calls
 Dm Fmaj7 C Dm 
And she swear, "God damn, if I find that man, I'm cuttin' off his balls."
 Dm Fmaj7 C Dm 
And then she heads for the clinic and she gets some static walking through the door.
 Dm Fmaj7 C Dm 
They call her a killer, and they call her a sinner and they call her a whore.
 Dm Fmaj7 C Dm 
God forbid you ever had to walk a mile in her shoes.
 Dm Fmaj7 C Dm 
'Cause then you really might know what it's like to have to choose.


Chrous:
 Dm Fmaj7 C Dm 
Then you really might know what it's like...  (What it's like)
 Dm Fmaj7 C Dm 
Then you really might know what it's like...  (What it's like)
 Dm Fmaj7 C Dm 
Then you really might know what it's like...  (What it's like)
 Dm Fmaj7 C 
Then you really might know what it's like...  


Bridge: (Picked like the intro)
 Dm Fmaj7 C 
I've seen a rich man beg. I've seen a good man sin. I've seen a tough man cry.
 Dm Fmaj7 C 
I've seen a loser win. And a sad man grin. I heard an honest man lie.
 Dm Fmaj7 C 
I've seen the good side of bad. And the downside of 

Its Only The Beginning chords – The Kalin Twins

 It's Only The Beginning:Kalin Twins.
#42 on BB Hot 100 on DECCA Records
in 1959.

INTRO: 
  D Bm G A 
(Oohhhhhhh-ooohhh-ooohhh-aaah-ooohhh-bom-

 bom-bom)

CHORUS:
      D Bm 
It's only the beginning..it's only the 
                G A Gbm 
beginning of a looove..that will never end.
 A D G D A 
That will never end-en-end.

#1.
 D Bm G 
Every time your lips touch mine there's no 
                A 
thrill that is more divine.
 D G A 
Silly girl, can't you feel, don't you know,
 G D 
we've got a long way to go?
              G D A 
(We've got a long way to go)..cause..

CHORUS:
      D Bm 
It's only the beginning..it's only the 
                G A Gbm 
beginning of a looove..that will never end.
 A D G D A 
That will never end-en-end.

#2.
 Gbm D G 
It's not hard to understand, why I hold my 
               A 
breath when I hold your hand.
 D G A G 
Silly girl, when I'm so close to you, well, 
            A D 
what'd you expect me to do?
             G D 
(what'd you expect me to do?)

CHORUS:
      D Bm 
It's only the beginning..it's only the 
                G A Gbm 
beginning of a looove..that will never end.
 A D G D A 
That will never end-en-end.
  D Bm G A 
(aaaah-aaahhh-aaahhh-aaaah-aaahhh-aaahhh)


#3.
 Gbm D Bm Gbm G 
I know what we've got in store, fortune tellers 
          A 
couldn't tell us more.
 D G A 
Silly girl, is our love here to stay? well, this 
              D G D A 
is all I can say..(this is all I can say)

OUTRO:
            D Bm 
Well, it's only the beginning..it's only the 
                G A G A D      
beginning of a looove..that will nev..er end.
 A G D    
That will never end.
  D Bm A D 
(It is only the beginning.)



A fifties smash from Kraziekhat.

Do They Know Its Christmas 2014 chords – Band Aid 30

 Intro:  C F C F G C                 
It's Christmas time, there's no need to be afraid
              F G C               
At Christmas time, we let in light and we banish shade
            F G C F 
And in our world of plenty we can spread a smile of joy
            Dm G C           
Throw your arms around the world at Christmas time
                        

           F G C                         
But say a prayer, Pray for the other ones
              F G C            
At Christmas time it's hard, but when you're having fun
           F G 
There's a world outside your window
            C F 
And it's a world of dread and fear
         Dm G 
Where a kiss of love can kill you
             C F 
And there’s death in every tear
         Dm G 
And the Christmas bells that ring there
         C F 
Are the clanging chimes of doom
        Dm G C 
Well tonight we’re reaching out and touching you


       F G C 
Bring peace and joy this Christmas to West Africa
    F G C 
A song of hope when there’s no hope tonight
     F G 
Why is comfort to be feared?
     C F 
Why is to touch to be scared?
     Dm G C F C 
How can they know it's Christmas time at all?


 Am G 
Here's to you, raise a glass for everyone
 Am G 
Here's to them, and all their years to come
 F G C 
Let them know it's Christmas after all
          F C 
Feed the world
 F C Dm G 
Let them know it’s Christmas time again
 C F C 
Feel the world
 F C Dm G 
Let them know it’s Christmas time again
 C F C 
Heal the world
 F C Dm G C 
Let them know it’s Christmas time again

Its About Time Tabs – Young The Giant V2

 -------------------------------------------------------------------------------
                             Its About Time - Young the Giant
-------------------------------------------------------------------------------
:Mrfreezeit
joshfriscic

Tuning:Standard

Please comment if you have a problem and also feel free to rate. Rock on!

     Intro      Guitar 1
e|--------4------------------4------------------4--------------------4-------|
B|--------5------------------5------------------5--------------------5-------|
G|--------6------------------6------------------6--------------------6-------|
D|--------6------------------6------------------6--------------------6-------|
A|------2/4----------------2/4----------------2/4------------------2/4-------|
E|---------------------------------------------------------------------------|

e|---------2------------------2-----------------2-------------------2--------|
B|---------4------------------4-----------------2-------------------2--------|
G|---------4------------------4-----------------3-------------------3--------|
D|---------4------------------4-----------------4-------------------4--------|
A|-------0h2----------------0h2-----------------4-------------------4--------|
E|--------------------------------------------0h2-----------------0h2--------|

   Guitar 2

                       Repeat Twice
e|------------------------4----6---4--------6--------------------------------|
B|--------------4--7---6-----7-----------------------------------------------|
G|---------4-----------------------------------------------------------------|
D|---------------------------------------------------------------------------|
A|---------------------------------------------------------------------------|
E|---------------------------------------------------------------------------|

Verses 1&2

Guitar 1
e|--------4------------------4------------------4--------------------4-------|
B|--------5------------------5------------------5--------------------5-------|
G|--------6------------------6------------------6--------------------6-------|
D|--------6------------------6------------------6--------------------6-------|
A|------2/4----------------2/4----------------2/4------------------2/4-------|
E|---------------------------------------------------------------------------|

Alt-verse
e|---------2------------------2-----------------2-------------------2--------|
B|---------4------------------4-----------------2-------------------2--------|
G|---------4------------------4-----------------3-------------------3--------|
D|---------4------------------4-----------------4-------------------4--------|
A|---------2------------------2-----------------4-------------------4--------|
E|----------------------------------------------2-------------------2--------|

Alt-verse guitar 2
e|--------------------------------------------12p11p9-----12p11p9------------|
B|---------3/5--7-------------1/3----5---------------------------------------|
G|---------------------------------------------------------------------------|
D|---------------------------------------------------------------------------|
A|---------------------------------------------------------------------------|
E|---------------------------------------------------------------------------|

Chorus
e------9-------9--------7-----7-------5-----5-------4-----4---|
b--------9-------9--------7-----7-------5-----5-------5-----5-|
g----9----------------8-------------6-------------6-----------|
d-11--------11------9-------9-----7-------7-----6-------6-----|
a-------------------------------------------------------------|
e-------------------------------------------------------------|
E-------------------------------------------------------------|

e-----2---------2-----2---------2-----2---------2-----2---------2-|
b-------2---------------2---------------2---------------2---------|
g------------------------------------------------------------