Tag: ive

Ive Got To Stop Loving You chords – Patty Loveless

 Patty Loveless - I've Got To Stop Loving You (And Start Living Again)


## NOTE: ~ ~ = Walk-Up from  G  to  C  ##


CAPO: 2nd Fret



INTRO:  C G D G C G C 
The bright lights don't thrill me like they used to do
             G D 
They only remind me of time spent with you
     G C 
And every old memory rekindles the flame
                  G D G 
I've got to stop loving you and start living again


                                  ~    ~   C 
The people all tell me, with time I'll forget
                    G D 
The sweet love you gave me and there'll be no regret
     G                            ~    ~    C 
But each time I see you, it's always the same
                      G D G Gadd9 G  ~ ~
Oh, I've got to stop loving you and start living again


BRIDGE:
      C G 
I've got stop dreaming about all the times
                                                   D 
When you told me you loved me and would always be mine
     G                         ~ ~   C 
And maybe, one day, find somebody new
                  G D G    ~ ~
And start living over and stop loving you


INSTRUMENTAL:  C G D G 


                            ~    ~     C 
The rain on my window flows down like tears
             G D 
It seems to know that I'm lonesome in here
       G                                ~    ~    C 
Oh, I guess I should step out and see some old friends
                  G D G     ~ ~
I've got to stop loving you and start living again
          C G D G     ~ ~
Oh, I've got to stop loving you and start living again


OUTRO:  C G D G

This Is The Best Burrito Ive Ever Eaten chords – Parry Gripp

 Parry Gripp - This is the best burrito I've ever eaten
: anderssoncaro
--------------------------------------------------------
No Capo

 D G Em 
This is the best burrito I've ever eaten
 A 
Yum yum yum
 D G Em 
This is the best burrito I've ever eaten
 A 
Yum yum yum


      G D 
With plenty of beans
     G D 
And plenty of cheese
     G D 
And plenty of rice
    A 
Oh isn't it nice?


 D G Em A 
Yum yum yum yum yum yum yum yum yum yum yum yum yum yum yum! 
 D G Em A 
Yum yum yum yum yum yum yum yum yum yum yum yum yum yum yum! 
 G D G D G D 
Yum yum yum yum yum, yum yum yum yum, yum yum yum, 
 A 
YUMMMMM! 


N.C.
This is the best burrito I've ever eaten

Yum yum yum

Dairybeat – Ive Gotta Get A Message To You – Bee Gees – Cover chords

 DAIRYBEAT: I'VE GOTTA GET A MESSAGE TO YOU (B., R. & M. GIBB) 4/4 - 88

|./.    |: Repeat the previous Chord and/or Measure of 4-Counts.


Intro: | C     | F Fsus4 F | C     | F Fsus4 F 

Verse 1:

   | Bb                             | Cm 
THE PREACHER TALKED WITH ME AND HE SMILED,

       | F                               | Bb 
SAID TO COME AND WALK WITH ME, COME AND WALK ONE MORE MILE.

       |./.                       | Cm 
NOW FOR ONCE IN YOUR LIFE YOU'RE A-LONE,

       | F                            | G 
BUT YOU AIN'T GOT A DIME, THERE'S NO TIME FOR THE PHONE.

Chorus:

         | C                      | Dm         | F G      | C 
I'VE JUST GOTTA GET A MESSAGE TO YOU,  HOLD ON,  HOLD ON.

        |./.                     | Dm             | F G      | C     |
ONE MORE HOUR AND MY LIFE WILL BE THROUGH,  HOLD ON,  HOLD ON.

Verse 2:

 Bb                      | Cm 
   I TOLD HIM I'M IN NO HURRY,

      | F                                 | Bb 
BUT IF I BROKE HER HEART, THEN WON'T YOU TELL HER I'M SORRY.

       |./.                  | Cm 
AND FOR ONCE IN MY LIFE I'M A-LONE,

     | F                           | G 
AND I GOTTA LET HER KNOW, JUST IN TIME BEFORE I GO.

Chorus:

         | C                      | Dm         | F G      | C 
I'VE JUST GOTTA GET A MESSAGE TO YOU,  HOLD ON,  HOLD ON.

        |./.                     | Dm             | F G      | C 
ONE MORE HOUR AND MY LIFE WILL BE THROUGH,  HOLD ON,  HOLD ON.

Verse 3:

       | Bb                      | Cm 
WELL, I LAUGHED BUT THAT DIDN'T HURT,

        | F                            | Bb 
AND IT'S ONLY HER LOVE, THAT KEEPS ME WEARING THIS DIRT.

       |./.                     | Cm 
NOW I'M CRYING, BUT DEEP DOWN IN-SIDE,

      | F                       | G 
WELL I DID IT TO HIM, NOW IT'S MY TURN TO DIE.

Chorus 2x:

         | C                      | Dm         | F G      | C 
I'VE JUST GOTTA GET A MESSAGE TO YOU,  HOLD ON,  HOLD ON.

        |./.                     | Dm             | F G      | C 
ONE MORE HOUR AND MY LIFE WILL BE THROUGH,  HOLD ON,  HOLD ON.


 A         | D                      | Em         | G A      | D 
I'VE JUST GOTTA GET A MESSAGE TO YOU,  HOLD ON,  HOLD ON.
                                                           / (Break)
        |./.                     | Em             | G A      | D 
ONE MORE HOUR AND MY LIFE WILL BE THROUGH,  HOLD ON,  HOLD ON.


Tab by: DAIRYBEAT (André H. Hofman, Purmerend, Netherlands).
FREE* Dairybeat ORIGINALS, COVERS and BACKING TRACKS on:
http://www.soundclick.com/bands/default.cfm?bandID=137360&content=music

https://www.youtube.com/user/Dairybeat

Ive Got Something On My Mind chords – Left Banke

 The Left Banke - I've Got Something On My Mind
song: https://www.youtube.com/watch?v=hWofSTyS52g

INTRO (2x)
 A D A E 

CHORUS
          A D 
I've got something on my mind
          A E 
It's no lie, I'm telling you why
          A D 
I've got something on my mind
          A E 
It's no lie, I'm telling you why

VERSE 1
 E Bm 
Up to now I've been afraid to say that
 A E 
You're the cause of all my pain
 E Bm 
If you keep this up my friend
   A E 
I think I'll go insane

CHORUS
          A D 
I've got something on my mind
          A E 
It's no lie, I'm telling you why

VERSE 2
 E Bm 
You've been treating me so bad
           A E 
Since the day that we met
 E Bm 
But now I am oh so glad
        A E 
And my girl you can bet

CHORUS
        A D 
I will say what's on my mind
           A E 
And this time there'll be no lie
          A D 
I've got something on my mind
          A E 
It's no lie, I'm telling you why

INTERLUDE
 G A G Csus4 C Bbsus4 Bb Absus4 Ab Gbsus4 

RE-INTRO
 A D A E 

VERSE 3
 E Bm 
You've been treating me so bad
           A E 
Since the day that we met
 E Bm 
But now I am oh so glad
        A E 
And my girl you can bet

CHORUS
   A D 
I will say what's on my mind
           A E 
And this time there'll be no lie
          A D 
I've got something on my mind
          A E 
It's no lie, I'm telling you why

OUTRO
 G A G Csus4 C Bbsus4 Bb Absus4 Ab Gbsus4

Where Ive Been Tabs – Rival Sons V2

 Rival Sons - Where I've been

This tab is for standard tuning but the original is in Open G.

Intro: At the G chord you can play around but this is somewhat right.

  Eb         E            G                         F            E              G
e-------------------------------------------------------------------------------3--
b---10-12-10----12----12----------3-----------------------13-----------13-------3--
G---------------12h14-12------4h5---5p4p0-2h4p2p0-----13----13-----13----13-----0--
D---------------------------5---------------------------------13-----------13---0--
A-------------------------------------------------------------------------------2--
E-11---------12-----------3-------------------------13--13-------12--12---------3--


Verse: 

C G F C x3

F C G x1

                            C G
She said since we've been together
                    F C
I tried not to keep secrets
         C    G
I was so lost then
                     F     C
I don't like to talk about it
              C  G
See, I needed money
                       F  C
Cause the habit wasn't cheap
               F C
I gave them my body
                    G
Now my memory won't let me sleep


( Play intro on this part :) )

Now I lay beside you
And when you touch me
I feel like I don't deserve you
That's when you remind me


Chorus: F C G

                       F    C
She says how could you love me
                         G
When you know where I've been
              F    C
How could you love me
                         G
When you know where I've been


Second Verse, same chords:

                     C G
You said when I came home
                             F C
I tried to put myself back together
                       C G
The war is still going on
                           F  C
Now my brother is still in danger
            C  G
Now I'm the soldier
                       F C
And the tradition runs deep
               F C
I gave them my body
                    G
Now my memory won't let me sleep


Have fun!

Nothing Ive Ever Known Tabs – Bryan Adams V3

 E||-----------------2--4--|--5--------------5----|--4--------------4----|--2--------------0-----|
B||-----------------------|------------2---------|------------2---------|------------2------3---|
G||-----------------------|-------2--------------|-------2--------------|-------2---------------|
D||-----------------------|----------------------|--2-------------------|--0--------------------|
A||-----------------------|----------------------|----------------------|-----------------------|
E||-----------------------|--2-------------------|----------------------|-----------------------|


  A                          Bm                     Bm/A                  E
--0-----------------------|----------------------|---------------------|----------------------|
--------------------0--2--|--3--------------3----|--3------------------|--0-------------------|
------------2----2--------|------------4---------|------------4--------|-----------------1----|
-------2------------------|-------4--------------|-------4-------------|------------2---------|
--0-----------------------|--2-------------------|--0------------------|-------2--------------|
--------------------------|----------------------|---------------------|--0-------------------|


  E                                       A                      Bm
-------------------|-------------------|----------------------|----------------------|
-------------------|-------------------|--2--------------2----|--3--------------3----|
--1----------------|-------------------|------------2---------|------------4---------|
-------------------|-------------------|-------2--------------|-------4--------------|
-------------------|-------------------|--0-------------------|--2-------------------|
--0----------------|-------------------|----------------------|----------------------|


  A                      A                        Bm                     Bm/A
--0-------------------|------------------------|----------------------|---------------------|
-----------------2----|------------------0--2--|--3--------------3----|--3------------------|
------------2---------|--2------------2--------|------------4---------|------------4--------|
-------2--------------|------------------------|-------4--------------|-------4-------------|
--0-------------------|--0---------------------|--2-------------------|--0------------------|
----------------------|------------------------|----------------------|---------------------|


  E                      E                   D                      E
----------------------|-------------------|----------------------|----------------------0-----|
--0-------------------|-------------------|----------------0-----|--0----------------0-----3--|
-----------------1----|--1----------------|--2----------2--------|----------------------------|
------------2---------|-------------------|-------0--------------|------------2---------------|
-------2--------------|-------------------|--0-------------------|-------2--------------------|
--0-------------------|--0----------------|----------------------|--0-------------------------|


  C#m                    A                          Bm                        Bm
----------------------|--------------------------|-------------------------|---------------------|
--5--------------5----|--------------------0--2--|--3--------------3p0-----|--3--------------5p3-|
------------6---------|--2---------2----2--------|------------4------------|------------4--------|
-------6--------------|-------2------------------|-------4-----------------|-------4-------------|
--4-------------------|--0-----------------------|--2----------------------|--2------------------|
----------------------|--------------------------|-------------------------|---------------------|


  A                                                                 E
--0-------------------|-------------------|----------------------|------------------0-----|
-----------------2----|--

Ive Got Freedom chords – Lily And Madeleine

 I’ve got Freedom: Lily & Madeleine  capo 3

 Intro:  C C *  C C C/G C C/G 
I come calling at the stairs now
 G G G 
I’ve got leaving in my eyes
       G F F 
I realize your just waking up
                    F F C C/G C C/G 
and giving to the rising sun

 C C/G C C/G 
I’ve got something to tell you____
 G G G 
And I didn’t want to lie
        G F F 
But this is not a bitter goodbye
                          F F 
there are no tears left to dry
                            C C/G C C/G 
Now I’ve got  Freedom___
 G  (strijk)                        F F C C/G C C /g
Free from settling, free from wasting my time.______

 C C/G C C/G 
Finally it’s right before me__
 G G G 
Maybe it was always here
          G F F 
My mind has never been quiet this clear my love
 F F 
Maybe I will keep in touch
                                                    C C/G C C/G 
                                   I’ve got freedom___
  G G F F C C *  C C *
Free from settling, free from wasting my time.____
 G G F F C C/G C C/G 
Free from meddling free from changing my mind_____
 C C/G C C/G G G G G 
Oohoohoohoo  _____ Oohoohoohoo
 F F F F C C/G C C/G 
Oohoohoohoo__________________

 C  (strijk)                             C 
I’ve got something to tell you
 G (strijk)                                G 
And I  didn’t want to lie
        G (strijk)               F F 
But this is not a bitter goodbye
                           F F 
there are no tears left to dry
                      C C/G C C/G C C/G C C/G  …..enz.   fade out
Now I’ve got  Freedom_____(Oohoohoohoo improvisatie)

All That Ive Got Acoustic chords – The Used V2

 Below are the chords that I have tabbed and that are used in the acoustic version of All
That I've Got by The Used which can be found and heard here:
http://www.youtube.com/watch?v=BTYw5NRy7yg. The tuning is in Drop C. Please listen to 
the song to learn the rhythm or strumming pattern. Rock on \m/


INTRO/CHORUS

D|-------------000--000------------000-----------|
A|---888--333--111--333--555--333--111--333~~----|
F|---777--222--000--000--444--222--000--222~~----|
C|---555--000--222--444--222--000--222--222~~----|
G|---555--000--333--555--222--000--333--000~~----|
C|---555--000------------222--000----------------|

VERSE

D|--------0------0---------0-------0---|
A|--------0------0---------0-------0---|
F|-12--12----1212---14--14----4--4-----|
C|-12--12----1212---14--14----5--5-----|  (However many times you need for
G|-10--10----1010---12--12----2--2-----|   the verse).
C|-10--10----1010---12--12----2--2-----|


The last part of every verse (usually when Bert says "I---" before the chorus comes in)
ends with Quinn strumming:

D|-----(0)------|
A|-----(0)------|
F|------12------|
C|------x-------|
G|------10------|
C|--------------|

BRIDGE

D|--------------0-0-0--=0-0-0----------------|
A|--------------0-0-0---0-0-0----------------|
F|--444----777--121212--141414---------------|
C|--222----555--121212--121212---------------|
G|--222--4/555--101010--121212---------------|
C|--222--4/555--101010--121212---------------|


If you have any comments or questions, even corrections, feel free to comment below and
I'll change it up! Thanks guys, hope you enjoy my first tab.

- Josh

Ive Got It Made chords – John Anderson

 I'VE GOT IT MADE
recorded by John Anderson


 D G D G D G 
A high dollar woman in a low cut dress
 A G D 
God never wanted me to have a woman like that I guess
                              G 
A forty room mansion sitting high on a hill
   A G D              
I ain't ever lived in a place like that and I never will


                  G D 
But I've got the mornin' sun, I've got the evenin' breeze
           A D 
I got the woman that I love lyin' close to me
            G D 
I've got a few good friends and all my bills are paid
           A D G D 
I got the moon and stars above and I've got it made


                               G 
I don't need a gold mine or a long limousine
     A G D 
I'm not the kind of man to surrender my soul to material things
                           G 
Just give me a capo and a shady spot to sit
    A G D 
To me that's about as close to heaven as a man can get

                  G D 
But I've got the mornin' sun, I've got the evenin' breeze
           A D 
I got the woman that I love lyin' close to me
            G D  
I've got a few good friends and all my bills are paid
           A D G D A D 
I got the moon and stars above and I've got it made


            G D  
I've got a few good friends and all my bills are paid
           A D 
I got the moon and stars above and I've got it made
           A D G D 
I got the moon and stars above and I've got it made

Ive Got This Friend chords – 5 Seconds Of Summer

 Hey guys! So this is my firs tab and I really hope you like it! 
The Dsus4 can easily be substituted for a regular D, it's personal preference which one.

If a chord has a *, it means use two slow strokes.
I play it with a normal DUDUD, with emphasis on some words, but it's up to you. 

Capo 1

 G 
Can I have a minute?
 Dsus4 
 I've gotta tell you something.
 Em 
 I heard that someone likes you,
 C Cadd9 Dsus4 
 And it might be nothing but he's right in front of you.
 G 
 He's kinda my size,
 Dsus4 
 Don't look back 'cause he's looking.
 Em 
 I think you know him,
 C Cadd9 .     Dsus4 
 But you just don't know that he's right in front of you.
 Em *      C *.            G Dsus4 
 Baby, you've been talking to him nearly every day,
 Em C 
 He really likes all the games that you play.
     G Dsus4 
 He told me to tell you to see what you'd say,
    G .                        C 
 Before he jumps in and he asks for a date.
          G  
 'Cause I've got this friend who's crazy about you,
 Dsus4 
 I've got this friend who can't be without you,
 Em C 
 I've got this friend and I wish I could see,
 G Dsus4 
 How this would end if you knew it was me.
 G 
 Something I have to tell you,
 Dsus4 
 He plays the bass guitar.
 Em 
 He thinks you'd like him better
        C Cadd9 Dsus4 
 If he had a car but now he's right in front of you.
  Em *      C *.            G Dsus4 
 Baby, you've been talking to him nearly every day,
 Em C 
 He really likes all the games that you play.
     G Dsus4 
 He told me to tell you to see what you'd say,
    G .                        C 
 Before he jumps in and he asks for a date.
          G  
 'Cause I've got this friend who's crazy about you,
 Dsus4 
 I've got this friend who can't be without you,
 Em C 
 I've got this friend and I wish I could see,
 G Dsus4 
What you would say if you knew it was me.

(Palm mute and only downstrokes this chorus)

 G Dsus4 
 Talking to you nearly every day,
     Em C 
 And I really like all the games that you play,
 G Dsus4 
 So I want to tell you to see what you'd say,
     G .                   C 
 Before I jump in and I ask for that date.
 G 
 I've been that friend,
 Dsus4 
 I've been that friend.
 Em .                           C 
 I've been that friend and I wish I could see,
 G Dsus4 
 How this would end if you knew it was me.
 D Dsus4 
 Talking to you nearly every day,
 Em C 
 I really like all the games that you play,
 G Dsus4 
 I wanna tell you to see what you say,
    Em C 
 Before I jump in and I ask for that date.
         G 
 'Cause I've been that friend who's crazy about you,
 Dsus4 
 I've been that friend who can't live without you,
 G 
 I've been that friend who wants to be with you,
 Dsus4 
 I've been that friend who wants to be near you.
        Em C 
 'Cause I've been that friend and I wish I could see,
  G .                        Dsus4

Ive Always Loved You chords – Third Day V3

 --------------------------------------------------------------------------
                 I've Always Loved You  -  Third Day
--------------------------------------------------------------------------

Chords Used:
    C Cmaj9/B Fmaj9/A Am7 G2   G2sus4  Famj7
e|-0-----0-------0------0----3-----3------0---|
B|-1-----1-------1------1----0-----1------1---|
G|-0-----0-------0------0----0-----0------2---|
D|-2-----0-------3------2----0-----0------3---|
A|-3-----2-------0------0----X-----X------0---|
E|-X-----X-------X------X----3-----3------X---|

Capo 4

Intro:  C Cmaj9/B Fmaj9/A Am7 Fmaj9/A Am7 G2  G2sus4  G2  G2sus4  G2  G2sus4  G2  G2sus4


Verse 1:
 C Cmaj9/B Fmaj9/A 
 I don't know how to explain it
        Am7 Fmaj9/A Am7 G2  G2sus4  G2  G2sus4  G2  G2sus4  G2  G2sus4
But I know that words will hard - - ly do
 C Cmaj9/B Fmaj9/A 
 Miracles, signs and wonders
          Am7 Fmaj9 Am7 G2  G2sus4  G2  G2sus4  G2  G2sus4  G2  G2sus4
Aren't enough for me to pro - - ve


Chorus:
 Am Fmaj7 C 
 Don't you know I've always loved you
 Am Fmaj7 C 
 Even before there was time
 Am Fmaj7 
 Though you turn away  
       C Cmaj9/B Am 
I'll tell you still
          Fmaj9/A Am7 G2  G2sus4  G2  G2sus4  G2  G2sus4
Don't you know I've always loved you
 G2 C Cmaj9/B Fmaj9/A Am7 Fmaj9/A Am7 G2  G2sus4  G2  G2sus4  G2  G2sus4  G2  G2sus4
 And I always will


Verse 2:
A greater love is not man
Thank the one who gives his life to prove
That he would do anything 
And that's what I'm gonna do for you

Outro:  C Cmaj9/B Fmaj9/A Am7 Fmaj9/A Am7 G2  G2sus4  G2  G2sus4  G2  G2sus4  G2  G2sus4


Please rate and comment!

Safe To Say Ive Had Enough Tabs by Seether

 Intro & Verse

D--------------------------------------------------|
A--------------------------------------------------|
F----------0----------0---------0------------------|   x3
C-----2-2-0------2-2-0-----2-2-0--3-3-3-3-3-3-3----|
G----2-2--------2-2-------2-2-----3-3-3-3-3-3-3----|
C-0h2--------0h2-------0h2--------3-3-3-3-3-3-3----|

Pre-chorus

D--------------------------------------------------|
A--------------------------------------------------|
F----------------------------10--------------------|   x3
C---10h12-12-12-12-12-10---10----------------------|
G--------------------------------------------------|
C--------------------------------------------------|

Still Pre-chorus

D--------------------------------------------------|
A--------------------------------------------------|
F--------------------------------------------------|   x1
C---10h13-13-13-13-13------------------------------|
G--------------------------------------------------|
C--------------------------------------------------|

Chorus

D--------------------------------------------------|
A--------------------------------------------------|
F--------------------------------------------------|   x2
C-2-2-2-0-0-0-2-2-2-0-0-5-2-2-2-5-5-5--------------|
G-2-2-2-0-0-0-2-2-2-0-0-5-2-2-2-3-3-3--------------|
C-2-2-2-0-0-0-2-2-2-0-0-5-2-2-2-3-3-3--------------|

Post Chorus/Pre Verse

D--------------------------------------------------|
A--------------------------------------------------|
F---10h12-12-12-12b-12-10v-------------------------|   x2
C--------------------------------------------------|
G--------------------------------------------------|
C--------------------------------------------------|

2nd Verse

D--------------------------------------------------|
A--------------------------------------------------|
F----------0----------0---------0------------------|   x3
C-----2-2-0------2-2-0-----2-2-0--3-3-3-3-3-3-3----|
G----2-2--------2-2-------2-2-----3-3-3-3-3-3-3----|
C-0h2--------0h2-------0h2--------3-3-3-3-3-3-3----|

2nd Chorus

D--------------------------------------------------|
A--------------------------------------------------|
F--------------------------------------------------|   x2
C-2-2-2-0-0-0-2-2-2-0-0-5-2-2-2-5-5-5--------------|
G-2-2-2-0-0-0-2-2-2-0-0-5-2-2-2-3-3-3--------------|
C-2-2-2-0-0-0-2-2-2-0-0-5-2-2-2-3-3-3--------------|

Bridge

D--------------------------------------------------|
A--------------------------------------------------|
F--------------------------------------------------|   x4
C-7-7-7-5-5-5-8-8-8-5-5-10-------------------------|
G-7-7-7-5-5-5-8-8-8-5-5-10-------------------------|
C-7-7-7-5-5-5-8-8-8-5-5-10-------------------------|

Final Verse

D--------------------------------------------------|
A--------------------------------------------------|
F----------0----------0---------0------------------|   x1
C-----2-2-0------2-2-0-----2-2-0--3-3-3-3-3-3-3----|
G----2-2--------2-2-------2-2-----3-3-3-3-3-3-3----|
C-0h2--------0h2-------0h2--------3-3-3-3-3-3-3----|

3rd Chorus

D--------------------------------------------------|
A--------------------------------------------------|
F--------------------------------------------------|   x2
C-2-2-2-0-0-0-2-2-2-0-0-5-2-2-2-5-5-5--------------|
G-2-2-2-0-0-0-2-2-2-0-0-5-2-2-2-3-3-3--------------|
C-2-2-2-0-0-0-2-2-2-0-0-5-2-2-2-3-3-3--------------|

Final Chorus

D-------------------------------------------------------|
A-------------------------------------------------------|
F-------------------5-----------------------------------|   x2
C-2-0-2-5-0-3-2-0-2-X-5-7-2-0-2-5-0-3-6-6-6-6-6-5-5-5-5-|
G-2-0-2-5-0-3-2-0-2-5-5-7-2-0-2-5-0-3-6-6-6-6-6-5-5-5-5-|
C-2-0-2-5-0-3-2-0-2-X-5-7-2-0-2-5-0-3-4-4-4-4-4-3-3-3-3-|

Ive Got To Have A Reason chords – Dave Clark Five

 I've Got To Have A Reason:Dave Clark Five.
#44 on BB Hot 100 on EPIC Records in 1967.

#1.
 G C G D C F E 
I've got to have a reason....I got to have a reason..
 E A D G D G D 
I got to have a reason why you're walking out on me.
 D Am Em C G 
There's something on your mind but you won't tell me.
 D Em C D 
Mmm, tell me why you're crying and I will help you,

help you, help you.

#2.
 G C G D C F E 
But I gotta have a reason....I got to have a reason..
 E Am C G 
I got to have a reason why you're walking out on me.

BRIDGE:
 D Em C G 
If there is someone else, then I would like to know.
 Em C D C D  
Gonna find out if you won't tell me, tell me, tell me.

#2.
 D G D F E 
But I gotta have a reason....I got to have a reason..
 E Am C G 
I got to have a reason why, you're walking out on me.
        A D A 
If you tell me what you're thinking everything will be 
   D 
alright. (everything will be all right.) 
 A D 
Love will never leave your side (love will never leave your side) 
        C D 
if you place your trust in me.

OUTRO:
   G D F E 
I got to have a reason....I got to have a reason..
 E Am C G D 
I got to have a reason why you're walking out on me.

OUTRO:
 D G D C F D G 
I got to have a reason...I got to have a reasoooon.


A sixties smash from Kraziekhat.

Ive Got A Rock And Roll Heart chords – Eric Clapton V2

 Transpose +5 steps with buttons on the left for original key, (or leave like this 
to sing with baritones!). Ask if you want chord fingering help.

Intro:  E C#m E C#m E A E C#m - B - E 
I've got a feeling, we could be serious girl
  E A E C#m - B - E 
Right at this moment, I could promise you the world
    A E               
Before we go crazy, before we explode,
 A B B7 
There's something 'bout me, baby, you got to know, you got to know

 E C#m A B E C#m A B 
I get off on '57 Chevys, I get off on screaming guitar
 E C#m A B  
Like the way it hits me every time it hits me
 A B E C#m E C#m E C#m E C#m 
I've got a rock and roll, I've got a rock and roll heart

 E A E C#m - B - E 
Feels like we're falling into the arms of the night
    E A E C#m - B - E 
So if you're not ready, don't be holdin' me so tight
 A E               
I guess there's nothing left for me to explain
  A B B7 
Here's what you're gettin' and I don't want to change, I don't want to change

 E C#m A B E C#m A B 
I get off on '57 Chevys, I get off on screaming guitar
 E C#m A B  
Like the way it hits me every time it hits me
 A B E 
I've got a rock and roll, I've got a rock and roll heart

Solo: (  E C#m A B  ) x3    A B B B B B 
I don't need to glitter, no Hollywood, all you got to do is lay it down and you lay it down good

 E C#m A B E C#m A B 
I get off on '57 Chevys, I get off on screaming guitar
 E C#m A B  
Like the way it hits me every time it hits me
 A B E C#m E C#m 
I've got a rock and roll, I've got a rock and roll heart
 E C#m E C#m 
I've got a (you've got a) rock and roll heart
 E C#m E C#m 
I've got a (you've got a) rock and roll heart
 E C#m E C#m 
I've got a (you've got a) rock and roll heart

Ive Given Up On You chords – Real Friends

 A  (x00220)  E  (022100)  C#  (x45500)  B  (x24400) 

The A is actually an Asus, the C# is some form of a power chord, and then B is actually B5, 

but you still want to hit the open B and E strings, by the sound of it.

 A E C# E A E C# B A E C#                           
You used to make me feel like I could walk on water
         E A E C# B                           
Now most nights I'm just sinking down and down
            C# B E A           
You're the reason why I can't listen to the same songs I used to
     E C# B                  
I write songs about you all the time
         A E C# B      
I bet I don't run through your mind
 B E                      
I've given up on you,
              A B                                    
But it still hurts to know you're not alone
       A                  
Don't worry,
           C# B A             
I'll keep out of your life and stay awake at night
 A E A                 
It's 4a.m. and you're keeping me from closing these sleepy eyes
                             E                   
Does the thought of me keep you up at night?
                       A           
Like the light on the ceiling of your bedroom
 E A E 
Lately, my dog's the only one around that listens to my problems
             A E                  
It's been a lonely year [x2]
 A E C# B               
I write songs about you all the time
         A E C# B                           
I bet I don't run through your mind
 B E      
I've given up on you,
              A B              
But it still hurts to know you're not alone
       A     
Don't worry,
           C# B A             
I'll keep out of your life and stay awake at night
                       E B                       
With just my skin and bones
                  A         
It hurts to know you're not alone
      E C# B A                    
I've given up on you, and my skin, and my bones 



Any comments, please let me know if this isn't accurate or whatever. I'm not sure 
if the chord voicings are exactly correct but just help us all out! Thanks!

Also please let me know if the tuning needs to be in Drop D, for I am unsure.

Ive Got You chords – Whats Eating Gilbert

 What's Eating Gilbert - I've Got You

Intro
 C ,  F , Am , G , F , Am , G 

Verse
 C 
I, I found my way out
           F Am G  
 From the bottom of a barrel
  F Am G C 
 No one to take care of me

 Then you came along
            F Am G 
 With your smile from ear to ear
          F Am G 
 And you made my heart feel whole again

Chorus
           Am G 
 They can hate on me all they want
            E Am 
 Call me a user, say you're too young
             F G 
 But in the end, I've got you
                 C  
 And they've got zip

Verse
     C 
 No I'm not bulletproof but
      F Am G 
 See I can take your cheapshots
         F Am G C 
 'Cause I've been through a whole lot more

 And know a good thing
      F Am G 
 And I'm not letting you go
          F Am G 
 There's so much that they don't know

Chorus
           Am G 
 They can hate on me all they want
            E Am 
 Call me a user, say you're too young
             F G 
 But in the end, I've got you
                 C  
 And they've got zip 
                Am G 
 Yeah they can start all the rumours they want
            E Am 
 Call me a cheater, say that I'm scum
                F G 
 But when it's done, I've got you
                  C 
 And they've got shit


solo
e|---------------------------------------------------------------------------------|
B|---------------------------------------------------------------------------------|
G|---xx--8-7-5-----5-7--8-7-5-----5-7--10-10-9-9-7--------10-10-12-9-7-5--------5~-|
D|---xx--------5-7------------5-7-----------------5-5h7-5----------------5-5h7-5---|
A|---xx----------------------------------------------------------------------------|
E|---------------------------------------------------------------------------------|

e|---------------------------------------------------------------------------------------|
B|---------------------------------------------------------------------------17-15-13-12-|
G|--------5-7-8-7-5--8-7-5----10-10-9-9-7---------10-10-12-12-14-12-12h14-12-------------|
D|----5-7-----------7------7--------------5-5h7-5----------------------------------------|
A|---------------------------------------------------------------------------------------|
E|---------------------------------------------------------------------------------------|


Final Chorus
  Am G 
 Hate on me all they want
            E Am 
 Call me a user, say you're too young
             F G 
 But in the end, I've got you
                  C  
 And they've got zip 
                Am G 
 Yeah they can start all the rumours they want
            E Am 
 Call me a cheater, say that I'm scum
                F G 
 But when it's done, I've got you
                  Am 
 And they've got shit 
                 F G  
 Yeah when it's done, I've got you
                  C 
 And they've got shit

Ive Been Thinking Tabs by Handsome Boy Modeling School

 ------------------------------------8>10-----11-13-10----8>10------|
-8>10-----------8>10-----------------------------------------------|
-------------------------------------------------------------------|
-----------------------8-7-8>10------------------------------------|
----------8>10-----------------------------------------------------|
-------------------------------------------------------------------|

Ive Got The World On A String chords – Frank Sinatra V2

 #---------------------------------PLEASE NOTE---------------------------------#
#This file is the author's own work and represents their interpretation of the#
#song. You may only use this file for private study, scholarship, or research.#
#-----------------------------------------------------------------------------#

As with many standards, this song has been performed by many artists.
I have written in a key that I am comfortable with, along with altered
chords that I hear from my jazz background.



Verse 1:
========
              F Eb7 D7 
I've got the world on a   string
 Gm7 C7 
Sitting on a rainbow
 F Bb7 Am7 Abm7 
Got that string a-round my fin - ger
 Gm7 F#dim7 Gm7 C7 F Gm7 C7       
What a world, what a life, I'm in love



            F Eb7 D7 
I've got a song that I   sing
 Gm7 C7 
I can make the rain go
 F Bb7 Am7 Abm7 
Anytime I move my fi  -  nger
 Gm7 F#dim7 Gm7 C7 F Gm7 C7  
Lucky me,    can't you see, I'm in love



Bridge:
=======
                     Em7 A7 
Life is a beautiful thing
                       Am/D D7 
As long as I hold the string
                       G13 G7 (#5)
I'd be a silly so and so
                      Gm7 C7sus 
If I should ever let go



Verse 3:
========
              F Eb7 D7 
I've got the world on a   string
 Gm7 C7 
Sitting on a rainbow
 F Bb7 Am7 Abm7 
Got that string a-round my fin - ger
 Gm7 F#dim7 Gm7 C7 F Gm7 C7          
What a world, what a life, I'm in love


[solo and repeat where you feel it is appropriate]