Tag: james

Say You Wont Let Go chords by James Arthur

[Intro]
G D Em C

[Verse 1]
G
I met you in the dark
D
You lit me up
Em
You made me feel as though
C
I was enough

G
We danced the night away
D
We drank too much
Em
I held your hair back when
C
You were throwing up

[Pre-Chorus]
G
Then you smiled over your shoulder
D
For a minute, I was stone cold sober
Em                        C
I pulled you closer to my chest

G
And you asked me to stay over
D
I said, I already told ya
Em                               C
I think that you should get some rest

[Chorus]
G
I knew I loved you then
D
But you'd never know
Em
Cause I played it cool when I was 
C
Scared of letting go

G
I know I needed you
D
But I never showed
Em
But I wanna stay with you
C
Until we're grey and old

G                       D
Just say you won't let go
Em                      C
Just say you won't let go

[Verse 2]
G
I wake you up with some
D
Breakfast in bed
Em
I'll bring you coffee with a
C
kiss on your head

G
And I'll take the kids to school
D
Wave them goodbye
Em
And I'll thank my lucky stars for 
C
That night

[Pre-Chorus]
G
When you looked over your shoulder
D
For a minute, I forget that I'm older
Em                           C
I wanna dance with you right now, oh

G
And you look as beautiful as ever
D
And I swear that everyday you'll get better
Em                          C
You make me feel this way somehow

[Chorus]
G
I'm so in love with you
D
And I hope you know
Em
Darling your love is more than worth its
C
Weight in gold

G
We've come so far my dear
D
Look how we've grown
Em
And I wanna stay with you
C
Until we're grey and old

G                      D
Just say you won't let go
Em                     C
Just say you won't let go

[Verse 3]
G
I wanna live with you
D
Even when we're ghosts
Em
Cause you were always there for me
C
When I needed you most

[Chorus]
G
I'm gonna love you till
D
My lungs give out
Em
I promise till death we part
C
Like in our vows

G
So I wrote this song for you
D
Now everybody knows
Em
That it's just you and me
C
Until we're grey and old

[Outro]
G                      D
Just say you won't let go
Em                     C
Just say you won't let go

G                      D
Just say you won't let go
Em                         C
Oh, just say you won't let go
G
(end on single strum)

Say You Wont Let Go chords by James Arthur

[Intro]

G D Em C

[Verse 1]

G

I met you in the dark

D

You lit me up

Em

You made me feel as though

C

I was enough

G

We danced the night away

D

We drank too much

Em

I held your hair back when

C

You were throwing up

[Pre-Chorus]

G

Then you smiled over your shoulder

D

For a minute, I was stone cold sober

Em                        C

I pulled you closer to my chest

G

And you asked me to stay over

D

I said, I already told ya

Em                               C

I think that you should get some rest

[Chorus]

G

I knew I loved you then

D

But you’d never know

Em

Cause I played it cool when I was

C

Scared of letting go

G

I know I needed you

D

But I never showed

Em

But I wanna stay with you

C

Until we’re grey and old

G                       D

Just say you won’t let go

Em                      C

Just say you won’t let go

[Verse 2]

G

I wake you up with some

D

Breakfast in bed

Em

I’ll bring you coffee

C

With a kiss on your head

G

And I’ll take the kids to school

D

Wave them goodbye

Em

And I’ll thank my lucky stars for

C

That night

[Pre-Chorus]

G

When you looked over your shoulder

D

For a minute, I forget that I’m older

Em                           C

I wanna dance with you right now, oh

G

And you look as beautiful as ever

D

And I swear that everyday you’ll get better

Em                          C

You make me feel this way somehow

[Chorus]

G

I’m so in love with you

D

And I hope you know

Em

Darling your love is more than worth its

C

Weight in gold

G

We’ve come so far my dear

D

Look how we’ve grown

Em

And I wanna stay with you

C

Until we’re grey and old

G                      D

Just say you won’t let go

Em                     C

Just say you won’t let go

[Verse 3]

G

I wanna live with you

D

Even when we’re ghosts

Em

Cause you were always there for me

C

When I needed you most

[Chorus]

G

I’m gonna love you till

D

My lungs give out

Em

I promise till death we part

C

Like in our vows

G

So I wrote this song for you

D

Now everybody knows

Em

Cause it’s just you and me

C

Until we’re grey and old

[Outro]

G                      D

Just say you won’t let go

Em                     C

Just say you won’t let go

G                      D

Just say you won’t let go

Em                         C

Oh, just say you won’t let go

If Im James Dean Youre Audrey Hepburn chords – Sleeping With Sirens Vsion 5

 This is not the acoustic version of the song. 
The song doesn't use a capo but if your voice is deeper than Kellin's, then it's capo 1
For strumming pattern: https://www.youtube.com/watch?v=FZlcV1m-zis. He plays the chords a bit differently but
 the strumming pattern is similar. Change the pattern for the second verse to match the first, if you want.
It might not be 100% accurate but it still sounds similar.

Standard Tuning

Intro:
 Gm Gm 
Stay for tonight
If you want to
I can show you
          E 
What my dreams are made of,
         F# 
As I'm dreaming of your face
            Gm 
I've been away for a long time
Such a long time
                      E 
And I miss you there
                                     F# 
I can't imagine being anywhere else
I can't imagine being anywhere else but here

 Gm Gm 
How the hell did you ever pick me?
                                E 
Honestly, I could sing you a song
                                          F# 
But I don't think words can express your beauty
                  Gm 
It's singing to me

How the hell did we end up like this?
                            E 
You bring out the beast in me
                                   F# 
I fell in love from the moment we kissed
                             Gm 
Since then we've been history

 Gm E E F# 
They say that love is forever
                            Gm 
Your forever is all that I need
        B E 
Please stay as long as you need
                                     F# 
Can't promise that things won't be broken
                               Gm 
But I swear that I will never leave
        B E 
Please stay forever with me

 Gm Gm E 
It goes to show, I hope that you know that you are
What my dreams are made of
 Gm 
Can't fall asleep, can't fall asleep
                                           E 
I lay in my bed awake, in my bed awake at night
As I dream of you
 Gm 
I'll fall in love, you'll fall in love
                                         E 
It could mean everything, everything to me
I can't imagine being anywhere else

 E F# 
They say that love is forever
                            Gm 
Your forever is all that I need
        B E 
Please stay as long as you need
                                     F# 
Can't promise that things won't be broken
                               Gm 
But I swear that I will never leave
        B E 
Please stay forever with me

 E                  
The way that we are
        F# 
Is the reason I stay
    Gm 
As long as you're here with me
   B 
I know I'll be OK

 E                  
The way that we are
        F# 
Is the reason I stay
    Gm 
As long as you're here with me
   B 
I know I'll be OK

 E F# 
They say that love is forever
                            Gm 
Your forever is all that I need
        B E 
Please stay as long as you need
                                     F# 
Can't promise that things won't be broken
                               Gm 
But I swear that I will never leave
        B E 
Please stay forever with me

 E F# 
They say that love is forever
                            Gm 
Your forever is all that I need
        B E 
Please stay as long as you nee

Wait For The People Acoustic Tabs – James Chatburn

 ------------------------
Wait for the People - James Chatburn
------------------------
: Nosnip
Tuning: Normal EADGBe
--This isn't exactly what James Chatburn plays but I think it's close

    1   2   3   4
e|--x---x---x---x---|
B|--2---6---4---2---|
G|--1---5---3---1---|
D|--2---6---4---2---|
A|--x---4---2---0---|
E|--2---x---x---x---|

INTRO
e|---------------------------------------------------------------------------------------------|
B|------------2-------------------------2-----------------------2-----------------------2------|
G|------------1-------------------------1-----------------------1-----------------------1------|
D|----2----------------2-------2----------------2-------2----------------2-------2------------2|
A|---------------------------------------------------------------------------------------------|
E|-2-----2---------2-------2-------2--------2-------2-------2--------2-------2-------2-----2---|

e|---------------------------------------------------------------------------------------------|
B|------------6-------------------------6-----------------------6------------------------6-----|
G|------------5-------------------------5-----------------------5------------------------5-----|
D|----6----------------6-------6----------------6-------6----------------6-------6-------------|
A|-4-----4---------4-------4-------4--------4-------4-------4--------4-------4-------4---------|
E|---------------------------------------------------------------------------------------------|

e|---------------------------------------------------------------------------------------------|
B|------------2-------------------------2-----------------------2-----------------------2------|
G|------------1-------------------------1-----------------------1-----------------------1------|
D|----2----------------2-------2----------------2-------2----------------2-------2------------2|
A|-----------------------------------------------------------------------------------------------|
B|------------4-------------------------4-----------------------2------------------------2-----|
G|------------3-------------------------3-----------------------1------------------------1-----|
D|----4----------------4-------4----------------4-------2----------------2-------2-------------|
A|-2-----2---------2-------2-------2--------2-------0-------0--------0-------0-------0---------|
E|---------------------------------------------------------------------------------------------|

e|----------------------------------------------------|
B|------------------------2----------------------2----|
G|------------------------1----------------------1----|
D|--------2-------2---------------2-------2-----------|
A|---0-------0--------0-------0-------0-------0-------|
E|----------------------------------------------------|

VERSE X2(Exactly the same as the intro)
e|---------------------------------------------------------------------------------------------|
B|------------2-------------------------2-----------------------2-----------------------2------|
G|------------1-------------------------1-----------------------1-----------------------1------|
D|----2----------------2-------2----------------2-------2----------------2-------2------------2|
A|---------------------------------------------------------------------------------------------|
E|-2-----2---------2-------2-------2--------2-------2-------2--------2-------2-------2-----2---|

e|---------------------------------------------------------------------------------------------|
B|------------6-------------------------6-----------------------6------------------------6-----|
G|------------5-------------------------5-----------------------5------------------------5-----|
D|----6----------------6-------6----------------6-----

Montana Acoustic chords – James Taylor

 This is a easer version of James Taylor's Montana - Harry Greives December 2015

Montana
James Taylor – 2015

Verse 1                                                                                  
                            Capo  -  2nd fret
 D Em A7 
I'm not smart enough for this life I've been livin',
   G Em A 
A little bit slow for the pace of the dream.
      Bm G 
It's not  I'm ungrateful for all I've been given;
     Em A D 
But nevertheless, just the same...


Verse 2
 D Em A7 
I wish to my soul, I was back in Mon-tana,
 G Em A 
High on my mountain and deep in the snow.
 Bm G 
Up in my cabin, over the valley,
 Em A D 
Under the blankets with you.


Chorus
 Bm G A D A 
O---------- O----ver  the ocean from here.  (Oh, Oh, Oh, Oh)
 Bm G A D A 
O---------- O----ver the mountains from there.  (Oh, Oh, Oh, Oh)


Verse 3
 D Em A7 
Who can imagine the scale of the forces
      G Em A 
That pushed this old mountain range up in the sky?
     Bm G 
Tec-tonic  creation,  e-rosion,  mutation;
 Em A D 
Somethin' to pleasure God's eye.


Verse 4
 D Em A7 
The world is a wonder of lightnin' and thunder,
     G Em A 
And green of the ground as we fall from the sky.
     Bm G 
The old and new faces, the tribes and the races...
 Em A D 
Thousands of places to try.


Chorus
 Bm G A D A 
O---------- O----ver  the ocean from here.  (Oh, Oh, Oh, Oh)
 Bm G A D A 
O---------- O----ver the mountains from there.  (Oh, Oh, Oh, Oh)


Bridge
 D Em A Bm 
One sits and waits while the other one wanders,
     G Em A 
And squanders his time with a life on the road.
 Bm G 
Down from the mountain, a-cross the wide ocean,
     Bm A D 
The world is in motion and cannot be slowed.


Verse 5
 D Em A7 
Enough for today... the de-mands of the moment,
     G Em A 
The thing on my mind is the work in my hand.
 Bm G 
Wood for the woodstove and water for coffee,
 Em A D 
Somethin' I can still under-stand.


Verse 6
 D Em A7 
We got a few friends but not many neighbors,
     G Em A 
The trip into town takes us most of the day.
     Bm G 
And after, "Hello", and "it's sure good to see you",
    Em A D 
It seems like there's nothin' to say.


Outro
 Bm G A D 
O---------- O----ver  the ocean from here.

Circles chords – James Maslow

 James Maslow- Circles
: Grgur Visic
Instagram: @grgurvisic

Hi guys, nice little song by James.
You can play A7 at some places if you wish,
it sounds prettier to me!


                 Am 
I know when you want it
          Am 
Yes, you want it
           G Am 
But you're never alone
             Am 
Just let me show you,
       Am 
I can show you
            G Am 
I'll do it better than before

 Am G Am 
Waiting my turn for your world cause it hurts without you, without you
 Am G 
Taking some time just to find I'm alright when I'm not with you
                Am 
Look what I've been through

         Am G 
But you always keep me running round in circles
           Am 
(Got me running)
     Am G 
You always keep me scratching out the surface
         Am 
(Got me running)
     Am G Am 
You never let the light behind the curtains
         Am G 
Now you always keep me burning by the circles
       G Am 
Yeah, I keep running round in circles.


               Am Am 
You think you own me, you don't own me
             G Am 
Girl you're losing control
            Am 
So, let me show you
            Am 
That I can show you
        G Am 
I don't need you anymore

 Am G Am 
Waiting my turn for your world cause it hurts without you, without you
 Am G 
Taking some time just to find I'm alright when I'm not with you
                Am 
Look what I've been through

         Am G 
But you always keep me running round in circles
           Am 
(Got me running)
     Am G 
You always keep me scratching out the surface
         Am 
(Got me running)
     Am G Am 
You never let the light behind the curtains
         Am G 
Now you always keep me burning by the circles
       G Am 
Yeah, I keep running round in circles.

            C G Am 
You always keep me running right back to you,
            C G Am 
I know you like me coming right back to you
          C G Am 
So, baby I'll keep running right back to you
              C Am G 
Or I'll just keep on running, no no no


         Am G 
But you always keep me running round in circles
           Am 
(Got me running)
     Am G 
You always keep me scratching out the surface
         Am 
(Got me running)
     Am G Am 
You never let the light behind the curtains
         Am G 
Now you always keep me burning by the circles
       G Am 
Yeah, I keep running round in circles.


         Am G 
But you always keep me running round in circles
           Am 
(Got me running)
     Am G 
You always keep me scratching out the surface
         Am 
(Got me running)
     Am G Am 
You never let the light behind the curtains
         Am G 
Now you always keep me burning by the circles
       G Am 
Yeah, I keep running round in circles.

Penguin James Penguin chords – Brad Paisley Vsion 2

 Penguin, James Penguin   Brad Paisley

Intro
           A E C#m 
Well the reindeer pull the sleigh, and the elves make the toys
               F#m B Emaj7 
Those are the stories that are well known to all little girls and boys
           A E C#m 
But I've got another story that I bet you haven't heard
 F# B 
Did you know that Santa has a secret agent bird?

Chorus
      E A B E 
He's Penguin, James Penguin; that dapper little guy
         A E C#m F#m B E 
Like a well-dressed duck in a three-piece tux, he's Santa's secret spy

Verse 1
 B E B E 
Have you ever wondered how Santa keeps tabs?
 B E F# B 
How he knows when you've been good, how he knows when you've been bad?

Chorus 1

Interlude
 E A B E A E C#m F#m B E 

Verse 2
         B E B E 
From an undisclosed location, he's watching me and you
          B E F# B 
He's got satellite uplinks in his cufflinks, yeah he sees everything you do

Chorus 1

Interlude

Bridge
 A G#m F#m B E 
Not so very long ago Santa didn't need much help
          A G#m F# B         
But with more and more kids every year, he soon got overwhelmed
    A G#m F#m B E       
He told the elves one Christmas “we can't do this anymore”
        F# B 
Then a knight in shining polyester waddled through his door

Chorus 2
            E A B E 
And it was Penguin, James Penguin; he was there to save the day
        A C#m F# B              
He had wireless and GPS outfitted on the sleigh
     E A B E 
And Santa said “Penguin, won't you be my ears and eyes?”
 A E C#m     F#m-B-E
“How'd you like to help me run my SCFBI?”

Chorus 3 (key change)
      F Bb C F 
He's Penguin, James Penguin and now I guess you've heard
      Bb F G F 
How Santa got his little Christmas Secret Agent Bird

Outro
 F G G# A Bb Fmaj7

Paul E James – Jesus Youre The One That I Want chords

 This is based on a song from Grease changed for use in church.

INTRO: 
 Em 

VERSE 1
       Em C G 
I got chills, they're multiplying, and I'm losing control
            B7 C Em 
'Cause the power you're supplying, it's electrifying

                  G B7 C Em 
I'd better shape up, 'cause I need a friend, and my heart is set on you
                  G B7 C Em 
I'd better shape up, better understand, to my lord I must be true



CHORUS
            G Em 
You're the one that I want, Lord Jesus
     G Em 
The one that I want, Lord Jesus
     G Em 
The one that I want, Lord Jesus
           C Em 
Can't you see, the Jonah in me, really your all I need


VERSE 2
 Em C G 
You are filled with affection, I am too stubborn to obey
     B7 C Em 
I will Meditate in your direction,  live my life your way
                  G B7 C Em 
I'd better shape up, 'cause I need a friend, and my heart is set on you
                  G B7 C Em 
I'd better shape up, better understand, to my lord I must be true


 C 
But I'm sure down deep inside
 C 
But I'm sure down deep inside

CHORUS
            G Em 
You're the one that I want, Lord Jesus
     G Em 
The one that I want, Lord Jesus
     G Em 
The one that I want, Lord Jesus
           C Em 
Can't you see, the Jonah in me, really your all I need

OUTRO:
 Em G Em 
You're the one that I want, Lord Jesus

Crow Jane chords – Skip James V3

 Crow Jane - Skip James  
Tuned open G (DGDGBD)

 G D7 C7 
Crow Janie, Crow Janie, Crow Jane, don't you hold your head high,
 G C7 G 
Someday, Baby, you know you got to die.
            D7 G C7 
You got to lay down and, you got to die, you got to

 G D7 C7 
And I want to buy me a pistol, wolf me forty rounds of ball,
 G C7 G 
Shoot Crow Jane just to see her fall.
            D7 G C7 
She got to fall, she got to,   she got to fall, she got to


 G D7 C7 
You know I begged Crow Jane, not to hold her head too high,
 G C G 
Someday, Baby, you know you got to die.
            D7 G C7 
You got to lay down, and,   you got to die, you got to

 G D7 C7 
And I dug her a grave, with a silver spade,
 G C7 G 
Ain't nobody going to take my Crow Jane's place.
            D7 G C7 
no you can't take her, no you can't take her

 G D7 C7 
You know I let her down, with a golden chain,
 G C7 G 
And every link I would call my Crow Jane's name.
            D7 G C7 
Crow Jane, Crow,   Crow Jane, Crow Jane

 G D7 C7 
You know I never missin' my water, til my well ran dry,
 G C7 G 
Didn't miss Crow jane until the day she died.
            D7 G C7 
til the day, she, died til the day, she died


 G D7 C7 
You know I dug her grave, eight feet in the ground,
 G C7 G 
Didn't feel sorry til they let her down.
           D7 G C7 
they had to,  let her down, they had, to let her down,

The Book Of Love Live Tabs – Gavin James

 Gavin james - The book of love  (Live from The Capitol Tower)

I Tried my best to make a version on the live preformance,
to my hearing is the intro accurate, the verse is somewhat accurate.
feel free to comment.

p= pull off
~= vibrate

capo 5
Intro:
 G                                    C          D
------------------------------------------------------------------------------------|
-------------------------------0--1--1-----0----------------------------------------|
-------------------------------0--0--0-----------2-----0--2--4-----0----------------|
----------------------------0-----------2-----2--0--0----------------0--------------|
-------------------------------------3----------------------------------------------|
-3--3--3--3--3--3--3--3--3----------------------------------3-----------------------| 

 G            C          D          G             Em           C          D             
------------------------------------------------------------------------------------------------|
--------0--1--1----0-------------------------------------0--1--1----0-------------------3~--1p0-|
--------0--0--0----------2--4p2p0-------0-------0--------0--0--0----0-----2-----0--2S4------0---|
-----0-----------2----2--0-----------------0----------0-----------2----2--0--0------------------|
--------------3------------------------------------------------3--------------------------------|
--3----------------------------------3--------2----0--------------------------------------------| 

  C
----------------------3--------3-----------------------------------------------------|
-----------1P0-----------------------------------------------------------------------|
--------0-------0--------0------0----------------------------------------------------|
-----2-------------2--------2--------------------------------------------------------|
--3----------------------------------------------------------------------------------|
-------------------------------------------------------------------------------------| 

The following you can play throughout the whole song:
  G            C          D             G                   
-----------------------------------------------------| 
--------------------------------3--------------------| 
-----------------------------2-----2-----------------|
--------0-----------0-----0------------------0-------|
-----0-----0-----0-----0------------------0-----0----|
--------------3--------------------------------------|
--3------------------------------------3-------------|

an alternative with Em
 C          D               G       Em                         
--------------------------------------------------| 
-------------------3------------------------------| 
----------------2-----2---------------------------|
-------0-----0-----------------------------0------|
----0-----0-----------------0-----0-----0-----0---|
-3------------------------------------------------|
-------------------------3-----2-----0------------|

verse1
G           C        D       G      Em      
The book of love is long and boring
Em          C        D       G      
No one can lift the damn thing
Em           C          D           G        Em      C        D     G
It's full of charts and facts, some figures and instructions for dancing

Chorus:
G          C            D        G
And I
Em         C          D     G
I love it when you read to me
G          C            D        G
And you
Em          C      D     G
You can read me anything

verse 2
The book of love has music in it
In fact that's where music comes from
Some of it's is just transcendental
Some of it is just really dumb

chorus
And I
I love it when you sing to me
And you
You can sing me anything
You can sing me anything

Oooh oooh 

verse 3
The book of love is long and boring
And written many years ago
It's full of thousand heart-shaped boxes
And things we're all too young to know

chorus
And I
I love it when you give me things
And you
You ought to give me wedding rings

Brokenhearted chords – James Arthur

 Tuning: Standard
No Capo

======
Chords

 E  (x79900)
 C#m  (x46600)
 Asus2  (x02200)
 B  (x24400)


========


Intro:  E  ,  C#m  ,  Asus2  ,  B E 
Well it started at a party
                 C#m 
I never knew your name 
                    Asus2 
You never knew mine either 
                                B 
But there was something about your face
                         E 
And you decided to come over 
                       C#m 
And I think it started there
                    Asus2 
You said “I really like you”
                               B 
And there was something in the air
                   E 
And then the party ended 
                 C#m 
And we were all alone
                         Asus2 
We lay there talking for hours 
                       B 
And then I walked you home
                           E 
Then you kissed me in the garden
                    C#m 
I picked you out a rose
                     Asus2 
You said “I think I love you”
                     B 
That’s when my body froze
And I said 

[Chorus]
 E 
"Never leave me broken hearted
  C#m 
Baby I’m not strong enough 
       Asus2 B 
Don’t ever please don’t ever, ever let me go"
                  Asus2 
You said "baby I won’t"
                  B 
You Said "Baby I won't

                        E 
But today you acted different
                       C#m 
I asked if you were alright
                           Asus2 
You said “yeah trust me I’m okay”
                           B 
Then you put your lips on mine
                 E 
That’s when I realised 
                       C#m 
Your eyes are full of lies
                              Asus2 
You would have fucked me for the story 
                           B 
You wanna take me for the ride


 E 
"Never leave me broken hearted
  C#m 
Baby I’m not strong enough 
       Asus2 B 
Don’t ever please don’t ever, ever let me go"
 E 
"Never leave me broken hearted
  C#m 
Baby I’m not strong enough 
       Asus2 B 
Don’t ever please don’t ever, ever let me go"
                  Asus2 
You said "baby I won’t"
                  B 
You Said "Baby I won't"
                  Asus2 
You Said "Baby I won't"
                  B 
You Said "Baby I won't"
                  Asus2 
You Said "Baby I won't"
                  B 
You Said "Baby I won't"
                  Asus2 
You Said "Baby I won't"
                  B 
You Said "Baby, Baby I won't"


 E 
"Never leave me broken hearted
  C#m 
Baby I’m not strong enough 
       Asus2 B 
Don’t ever please don’t ever, ever let me go"

 E C#m 
         You Said "Baby I won't"
                          Asus2 
         You Said "Baby I won't"
                           B E 
         You Said "Baby I wo---------n't"

Let It Go Tabs – James Bay V4

 -------------------------------------------------------------------------------
                             Let It go - James Bay
-------------------------------------------------------------------------------
: Trond Marius Sørensen
 Trond_Marius_96@hotmail.com

Tuning: It's tuned a half-step down, but the F# string should be tuned a whole step down to F.

D#
A#
F
C#
G#
D#



Intro
                        
|------------------------------------------------------------|
|-----7-----7-----7----/12------12-----12-----12-----12------|
|--------0-----0-----0-------0------0------0------0------0---|
|------------------------------------------------------------|
|-----5----------------/10-----------------------------------|
|------------------------------------------------------------|
      
|------------------------5------5------5---------------------|
|-----7-----7-----7---------------------------8-------7------|
|--------0-----0-----0-------0------0------0------0------0---|
|------------------------------------------------------------|
|------------------------------------------------------------|
|-----7------------------5-----------------------------------|

|------------------------------------------------------------|
|-----7-----7-----7----/12------12-----12-----12-----12------|
|--------0-----0-----0-------0------0------0------0------0---|
|------------------------------------------------------------|
|-----5----------------/10-----------------------------------|
|------------------------------------------------------------|


|------------------------0------0-------0-----0-------0------|
|-----7-----7-----7------------------------------------------|
|--------0-----0-----0-------0------0------0------0------0---|
|------------------------------------------------------------|
|------------------------------------------------------------|
|-----7------------------5-----------------------------------|

Verse

|------------------------------------------------------------|
|-----7-----7-----7----/12------12-----12-----12-----12------|
|--------0-----0-----0-------0------0------0------0------0---|
|------------------------------------------------------------|
|-----5----------------/10-----------------------------------|
|------------------------------------------------------------|
      
|------------------------5------5------5---------------------|
|-----7-----7-----7---------------------------8-------7------|
|--------0-----0-----0-------0------0------0------0------0---|
|------------------------------------------------------------|
|------------------------------------------------------------|
|-----7------------------5-----------------------------------|

|------------------------------------------------------------|
|-----7-----7-----7----/12------12-----12-----12-----12------|
|--------0-----0-----0-------0------0------0------0------0---|
|------------------------------------------------------------|
|-----5----------------/10-----------------------------------|
|------------------------------------------------------------|


|------------------------5------5------5---------------------|
|-----7-----7-----7---------------------------8-------7------|
|--------0-----0-----0-------0------0------0------0------0---|
|------------------------------------------------------------|
|------------------------------------------------------------|
|-----7------------------5-----------------------------------|

|------------------------------------------------------------|
|-----7-----7-----7----/12------12-----12-----12-----12------|
|--------0-----0-----0-------0------0------0------0------0---|
|------------------------------------------------------------|
|-----5----------------/10-----------------------------------|
|------------------------------------------------------------|

|------------------------5------5------5---------------------|
|-----7-----7-----7---------------------------8-------7------|
|----

We Give You Glory chords – James Fortune

 Chorus1:
    D2/A A D2/A A 
We give You glory, we give You glory
    D2/A A E D - C# - A 
We give You glory, Oh God
    D2/A A E2/G# D2/F# 
We give You glory, we give You glory
    Bm7 A/C# E A - G# - E 
We give You glory, Oh God

Chorus2:
Hallelujah, Hallelujah
Hallelujah, Oh God

Verse:
               D A/C# D A2 
For You have fought for me, defeated death for me
                D A/C# E2/G# A/C# 
The weight of sin You carried for me
             D A/C# D A2 
Your never ending love, what You gave for us
              D B2/D# E 
Is far more greater than anything

Chorus3:
Emmanuel, we know You’re with us
We give You glory, Oh God
And We declare You’re holy, You’re more than worthy
We give You glory, Oh God
 
Chorus4:
Send Your power, Send Your power
Send Your Power, Oh God

Holy chords – Eddie James

 Chorus:
         D#m C#2 
You are Holy, holy, holy, Holy, holy, holy,
 B C# Do7 
Holy, holy, holy, Holy Lord
         D#m C#2 
You are Holy, holy, holy, Holy, holy, holy
     B G# C# A#7/D 
The whole earth is full of Your glory
*Worthy *Righteous *Lovely

Verse1:
 D#m C#2 B C# Do7 
I see You high and lifted up beyond the skies,
                                             ( Holy, holy, holy, Holy Lord)
 D#m C#2 B G# C# A#7/D 
I see Your throne as the train of your robe fills the temple
                                           ( The whole earth is full of Your glory)
      D#m C#2 B C# Do7 
Your train so majestic for it shows every victory You've won for me 
                                                                 ( Holy, holy, holy, Holy Lord)
           D#m C#2 
You're my conquering King, the One who fights for me,
      B G# C# A#7/D 
Even death is swallowed up in victory because

Verse2:
Faithful and true, in righteousness You judge and make war
Your eyes a flaming fire, from Your mouth comes a sharp two-edged sword
On Your vesture dipped in blood is written King of Kings and Lord of Lords
To You be all the blessing, dominion, and power now and forever amen

Bridge:
 D#m 
Holy, worthy, righteous, and lovely
 D#m C# 
Faithful, Jehovah, Yeshua, Messiah
 D#m 
Creator, Redeemer, Restorer, my Healer
     B G# C# A#7/D 
The whole earth is full of Your glory

P.S. The verses, because of the way the chords and vocals work together, were difficult to write down; 
so in other words, you kind of have to go with the flow of the song. If it helps the verses are played 
the same way as the chorus. Oh and the small 'o' means diminished.

Let It Go chords – James Bay

 D-tuning, but you can play it with the regular tuning as well. 

Verse + Chorus: 

       D# G# 
|------------------------------------------------------------|
|-----8-----8-----8----/13------13-----13-----13-----13------|
|--------0-----0-----0-------0------0------0------0------0---|
|------------------------------------------------------------|
|-----6----------------/11-----------------------------------|
|------------------------------------------------------------|
      
       Cm B 
|------------------------6------6------6---------------------|
|-----8-----8-----8---------------------------9-------8------|
|--------0-----0-----0-------0------0------0------0------0---|
|------------------------------------------------------------|
|------------------------------------------------------------|
|-----8------------------6-----------------------------------| x infinity

Pre-Chorus:
       Cm B 
|------------------------------------------------------------|
|-----8-----8-----8------8-------8------8------8------8------|
|--------8-----8-----8-------8------8------8------8------8---|
|----10------------------8-----------------------------------|
|------------------------------------------------------------|
|------------------------------------------------------------|

       Am G# 
|------------------------------------------------------------|
|-----8-----8-----8------8-------8------8------8------8------|
|--------8-----8-----8-------8------8------8------8------8---|
|-----7------------------6-----------------------------------|
|------------------------------------------------------------|
|------------------------------------------------------------| x2

From walking home and talking lows
Seeing chirps in evening clothes with you
From nervous touch and getting drunk
To staying up and waking up with you

Now we're slipping near the edge
Holding something we don't need
Oh, this delusion in our heads
Is gonna bring us to our knees

So come on, 
LET IT GO
JUST LET IT BE
Why don't you be you
And I'll be me
And everything that's broke
Leave it to the breeze
Why don't you be you
AND I'LL BE ME
AND I'LL BE ME

From throwing clothes across the floor,
To teeth and clothes and slamming door on you
If this is all we're living for
Why are we doing it, doing it, doing it anymore?

I used to recognize myself
It's funny how reflections change
When we're becoming something else,
I think it's time to walk away

So come on, 
LET IT GO
JUST LET IT BE
Why don't you be you
And I'll be me
And everything that's broke
Leave it to the breeze
Why don't you be you
AND I'LL BE ME
AND I'LL BE ME

Tryina fit your hand inside my mine,
When we know it just don't belong
There's no force on Earth
That could make me feel so wrong
Ooh oh,
Tryina push this problem up the hill
When it's too heavy to hold
I think now is the time to let it slide.

So come on, 
LET IT GO
JUST LET IT BE
Why don't you be you
And I'll be me
And everything that's broke
Leave it to the breeze
Let the ashes fall
And forget about me,
So come on, 
LET IT GO
JUST LET IT BE
Why don't you be you,
And I'll be me?!

AND I'LL BE ME

Glacier chords – James Vincent Mcmorrow

 Glacier by James Vincent Mcmorrow
This is an amazing song.  Chords and lyrics are not perfect, but they are a start, hopefully.

Standard Tuning -- no capo
 G Bm A Bm A G Bm A 
 Someone hears a lie, somewhere underneath,
                         Bm A G 
caught between the reeling, mirroring the beat. 
                Bm A 
I no longer fit  and the years asleep. 
                         Bm A 
Show no sense of holding, staring aimlessly.

 D F#m Bm G 
I wanna go south of the river, glacier slow in the heart of the winter. 
 D F#m A G         
I wanna go south of the river, face it alone in the heart of the winter.

                          Bm A 
And this we'll celebrate,    this we'll celebrate 
                      Bm A G 
There and on the stage, this is a mistake. 
                     Bm A      
Damn me off the long.   Down the earth and moon, 
                        Bm A G 
damp and clawing kneeling, rustling into change. 
                    D A 
In a moment I was caught, in a calling by a steam. 
                                         Bm A 
In the moment of a hot.

 D F#m Bm G 
I wanna go south of the river, glacier slow in the heart of the winter. 
 D F#m A G         
I wanna go south of the river, face it alone in the heart of the winter.
       F#m Bm A Em        
I am knotted at the love called house.


 Bm 
Few became, few became as glory as long locked as the forest 
                                 G 
state and starting living near. 
              Em 
Harrow since, ever since the farthest reaching under we inside 
             C 
a cheat, his banks again, so dear.
                                       Em 
Someone hears a lie, somewhere underneath. Caught between 
      G C Em 
the reeling, mirroring the beat. I no longer fit, and in years we fall. 
                G C 
Silence is so cold, and there's no sense at all. 
                                          Em      
And I was someone else, I was something good. 
                   G D 
Barrelling at the old. There along the door.


 G Bm A G D    
I wanna go south of the river, face it alone in the heart of the winter. 
 G Bm A G         
I wanna go south of the river, face it alone in the heart of the winter.
 

Were Coming Home chords – Pete James

 We're Coming Home
Pete James
Key:  G 

Verse 1:
 G 
We're in this battle together, I'm not leaving without you
Comrades in this adventure, we stand as one in hope and truth
 D Bm Em                           
You've got my back and I've got yours, with God we'll make it through 
 D Bm Em 
Courage put our fears to flight you've carried me I'll carry you
             C D 
Singing the anthem singing it loud

Chorus:
 C D G D/F# Em 
We're coming home, we're coming home together
 C D G Bm Em 
We're coming home, to glory when this life is over
 C D G 
We're coming home, together 

Verse 2:
We're living in an awakening, the days the prophets told are here
And with this fire within us, we'll fill our city with the love of Jesus
Until the great and glorious day when riding from the skies
The king of kings and Lord of Lords re[turns to claim his bride
Singing the anthem, singing it loud

Chorus:
 C D G D/F# Em 
We're coming home, we're coming home together
 C D G Bm Em 
We're coming home, to glory when this life is over
 C D G D/F# Em 
We're coming home, we're coming home together
 C D G Bm Em 
We're coming home, to glory when this life is over
 C D G 
We're coming home, together 

Interlude:
 C D G D Em C D 

Bridge:
 C D 
Run, run, don't ever give in
       G D/F# Em 
We're running this race together
 C D 
Run, run don't ever look back
       G Bm Em 
We're running this race together

Chorus:

Just Came Back chords – Colin James

 Just Came Back                         - Colin James
==============
Intro: (blues slide gtr) -  see bottom
I got stones in my passway, and my road seems dark at night,
I got stones in my passway, and my road seems dark at night,
I got pains in my heart, they done taken my appetite.

Intro: | D   |   | G    |    | D   |   | G    |    |

            D G 
Now when I first saw you, I heard the angels sing,
              D G 
I thought of Adam and Eve and that love thing,
          D 
Oh I was blinded by the light and I just couldn't see,
 C 
Papa hiding up in your apple tree.
 G 
  I really hope you're satisfied,
   D D                  (F- E -D)
I just came back to say goodbye         

                                             *********************
 D G        *          *
  Girl I found your little black book        * Chris Williscroft *
   D G          *********************
I opened it up to get a second look
          D 
I saw my best friends' name upon the page
 C 
Five gold stars beside his name.            
 G                                  
 I really hope you're satisfied,       
   D D               
I just came back to say goodbye


   D G 
I just came back to say goodbye (I just came back) Goodbye baby!
   D G 
I just came back to say goodbye (I just came back) Goodbye baby!


Solo:  | E  |  | A  |  | E  |  | A  |  | E  |  | D  |  | A  |  | G  |  |


   D G 
I felt real bad, thought I'd give you a call,
          D G 
I didn't look up the number, I just looked on the wall.
               D 
You know your best friend said you'd gone for the night
 C 
Going downtown with your jeans on tight.
 G 
 I really hope you're satisfied,
   D D                ( F - E - D )
I just came back to say goodbye


   D G 
I just came back to say goodbye (I just came back) Goodbye baby!
   D G 
I just came back to say goodbye (I just came back) Goodbye baby!
   D G 
I just came back to say goodbye (I just came back) Goodbye baby!
   D G 
I just came back to say goodbye (I just came back) Goodbye baby! 


solo on | D   |   | G    |    |  ...to end


Blues into  (from elsewhere on the web - unchecked for errors)
(slide steel - open G tuning D-G-D-G-B-D
e|--------------------------------------------|
B|----------/7--0---5----7-7-5----------/7----|
G|--77665544/7--0---5----7-7-5--77665544/7----|
D|----------/7--0---5----7-7-5----------/7----|
A|----------/7--0---5----7-7-5----------/7----|
E|--------------------------------------------|

Beautiful Lies chords – James Arthur

 Here's James Arthur's "Beautiful Lies" i found the chords while watching the video and 
the same for the lyrics, i hope these are correct.

For the chords i'm pratically sure that these are the good ones.


There's 2 G chords in the song :
 The "normal" but without the index finger
 The Bar chord but with the 2 bottom strings open (when he goes to the pre chorus)
 The F chords is also with the 2 bottom strings open, but it can work with the usual bar chord
 The Cadd9 is playing like the G chord without the index but with the thumb on the low E


Standard Tunning
No capo




Verse 1

[ Am ]They lay, [ G ]intoxicated [ Em ]together alone
[ F ]As she cried in his arms [ G ]
[ Am ]She claims to [ G ]love him oh, she [ Em ]bares her soul

 Pre Chorus

 [ F ]But he's looking away [ G ]
 [ F ]He's falling into demise[ G ]
 [ F ]He's tryna get trough the night[ G ]
 [ F ]Hold on
 ho, no [ G ]
 She says

 (Chorus)

[ Cadd9 ]Don't look at [ G ]me again cause [ Am ]all i see
Are your [ F ]beautiful [ G ]lies

And [ Cadd9 ]don't talk to me {G]again cause [ Am ]all i see
[ F ]Are your beautiful lies[ G ] x3

 Verse 2

[ Am ]Forced laughter [ G ]followed by her [ Em ]plastic smile

 Pre chorus

[ F ]He's screaming "let me inside"[ G ]
 [ F ]He's tryna get though the night[ G ]
 [ F ]Ho, no [ G ]
 [Mute]He says..

 (Chorus)

[ Cadd9 ]Don't look at [ G ]me again cause [ Am ]all i see
Are your [ F ]beautiful [ G ]lies

And, [ Cadd9 ]don't look (Possibly a mistake by JA), talk to me [ G ]again cause [ Am ]all i hear
[ F ]are your beautiful lies[ G ] x3

[ F ]oh, oh.. [ G ]
[ Am ]hold on [ G ] x3
[ G ]beautiful lies [ C ](till it fade out) ...

Come To My Door chords – Jose James V2

 -------------------------------------------------------------------------------
                             COME TO MY DOOR – José James
-------------------------------------------------------------------------------
: Bastiaan Elling
 bastiaanelling@hotmail.com


Hi again! Someone asked me to put the chords above the lyrics like it's usually done so 
here you are. :)

In my opinion this song's rythm is quite easy, nothing fancy, so if you want to practise
with the old tab (which I think is best) try playing with the music and using a
metronome (like http://www.metronomeonline.com/) on 44 (not sure so please comment if 
you think I'm wrong)

Remember that for most of the songs it really doesn't matter if you get the same
strumming pattern as the original (just like you don't need to have the same voice as the
singer to sing his song) Nobody plays the same way, that's why covers are so cool imo ^^.


BTW ! Important !!

I heard a chord between the last ( Em ) of the bridge and the first ( D ) of the chorus -->
I think it's an A, but I'm not sure so please comment!!

Tuning: EADGBe
[no capo]
[chords for intro, verse and bridge]
 D :    x-5-7-7-7-5---|
 Bm7 :  x-2-4-2-3-4---|
 F#m :  2-4-4-2-2-2---|
 Em :     0-2-2-0-0-0-|
 G :      3-5-5-4-3-3-|

[chords for bridge v2]
 Em :     x-7-9-9-9-7-|
 Dm :     x-5-7-7-6-5-|
 A :      5-7-7-6-5-5-|
 G :      3-5-5-4-3-3-|

[chords for chorus v2]
 E :      x-7-9-9-9-7-|
 C#m7 :   x-4-6-4-5-4-|
 G#m :    4-6-6-4-4-4-|
 F#m :    2-4-4-2-2-2-|




Intro:
[ D Bm7 F#m Em ]  x2


[Verse]
( D )                           ( Bm7 )
So long we’ve been distant now
                         ( F#m )
Since you set out on your own
                              ( Em )
You told me you had to find something
               ( D )
To believe in
                         ( Bm7 )
Never thought you’d ever leave
                         ( F#m )
But as you walked out the door
                          ( Em )
I pray that you will soon find
                      ( G ) (beginning of the bridge)
All that you needing



[Bridge]
                ( F#m )             ( Em )
And while you’re out there on your own
      ( Bm7 )
If the rain starts falling
      ( F#m )             ( G )
Or you get too cold
      ( F#m )           ( Em )
If you need a place to go



[Chorus]
( D )                    ( Bm7 )
Oh, I just want you to know
      ( F#m )                        ( Em )
It’s alright, it’s alright, it’s alright
( D )                   ( Bm7 )
Oh, you can come to my door
        ( F#m )
I don’t mind, I don’t mind,
        ( Em )                    ( D )(beginning of Verse2)
I don’t mind at all



[Verse]
                                ( Bm7 )
So long you’ve been searching now
                          ( F#m )
But still I can see your face
                       ( Em )
The memories numb this pain
                    ( D )
Just for a moment
                   ( Bm7 )
At night I lie sometimes
           ( F#m )
Awake in my bed
                    ( Em )
Repeating over and over
                 ( G )(beginning of bridge)
Our conversation



[Bridge]
     ( F#m )                   ( Em )
Right no