Tag: joe

Joe Victor – Days chords

 DAYS

Verse

 Am7 
Days
                     D     
Where trouble seems away 
 Bdim/D Em7 
   Life is a furious game
 Em6 Dm 
   Drink lover, drink again 
 C    
Days
 C/C# C/D 
   There’s trouble everywhere 
    Fm C Am 
My love  ma - chine
               Gm7 
That daddy is mending 
 C Am   -   A 
  When years go by

Verse 2

 Am7 
Days
                   D 
We live in circle days 
 Bdim/D Em7 
   Repetition days
 Em6 Dm 
   The art of supermen 
 C 
Love
 C/C# C/D 
   The magic selling word 
         Fm C Am 
That controls your soul 
                Gm7 
And leaves you bended 
 C7 F 
When days go by


Instrumental Verse

 Am7 
Days
                   D 
We live in circle days
 Bdim/D Em7 
  In repetition days
 Em6 Dm C 
  Drink lover, drink and dance 'till dawn
 C/C# C/D 
   i’ll do my silent talks
    Fm7 C Am 
on love    ma - chine /how it works 
               Gm7 
That daddy is mending
 C7 F 
In days of lies







A Little Guy Called Joe chords – Stonewall Jackson

 C F C 
In a war torn land of poverty some where across the sea

                                                            G7 
There's a little guy who's waiting and he looks a lot like me

     C F C 
His hair is like a raven or the wings of a crow

                                          G7 C 
I don't know what they named him but I'm sure they call him Joe


        F C 
Just a little guy called Joe like so many more I know

                                     G7 
Left all alone somewhere across the sea

        C F C 
I want him to have my name little Joe is mine to claim

                        G7 C 
This little guy called Joe belongs to me


                                      F C 
His mother died to give him life the night my orders came

                                            G7 
I wanted to be with them but war's an evil thing

     C F C 
Now he won't recognize me but I've got to let him know

                                           G7 C 
He means much more to someone than just a little called Joe


        F C 
Just a little guy called Joe like so many more I know

                                     G7 
Left all alone somewhere across the sea

        C F C 
I want him to have my name little Joe is mine to claim

                        G7 C 
This little guy called Joe belongs to me

Come Just As You Are chords – Joe Sabolick

 CAPO 3

 D A G A 
Come just as you are.
 Bm A D G A 
Hear the Spir-it call______.
 D A G 
Come just as you are.
 Em D 
Come and see, come receive,
 G Asus A 
Come and live for - ev - er.


 G D Bm A G D Bm A 
Life everlasting____,  and strength for today____.
 G Bm Em Asus A 
Taste the Living Water, and never thirst a-gain___.


 D A G A 
Come just as you are.
 Bm A D G Bm A 
Hear the Spir-it  call______.
 D A G 
Come just as you are.
 Em D 
Come receive, Christ the King,
 G Asus A D 
Come and live for-ev - er more.



V1 -> CH -> V2 -> CH -> V2

Goodbye Supernova Tabs – Joe Satriani

 -------------------------------------------------------------------------------
                             Goodbye Supernova - Joe Satriani
-------------------------------------------------------------------------------
Tuning: Eb

Intro
e|-9----------5----------2----------------|
B|-7----------5----------0----------------|
G|-9----------7----------4----------------|
D|----------------------------------------|(x4)
A|----------------------------------------|
E|----------------------------------------|

Bridge
e|------------------------------------------|
B|--------------------------------------(7)-|
G|--------------------------------------(7)-|
D|-----------9-7----7-----------------------|(x2)
A|------7-9------9----9-7--9-7--------------|
E|-7-10------------------------10--7--------|

Verse 1
e|---------------------------------------------------------------|
B|---------------------------------------------------------------|
G|-(11)r9p7--9b11--9b11~~--(11)r9p7--9b11----9b11--9b11~~~~~~~~/-|
D|---------------------------------------------------------------|
A|---------------------------------------------------------------|
E|---------------------------------------------------------------|

e|---------------------------------------------------------------------------|
B|---------------------------------------------------------------------------|
G|-(11)r9p7--9b11r9b11----9b11--(11)r9--7--9b11------9b11--9b11--9b11~~~~~~\-|
D|---------------------------------------------------------------------------|
A|---------------------------------------------------------------------------|
E|---------------------------------------------------------------------------|

e|-----------------------------------------------|---------------------------------------------|
B|-----------------------------------------------|---------------------------------------------|
G|-----6--7~~--9--9~~--9--9/12~~~~~~--11br~~~~~~-|-4\2/4/7~~~~~~~~~~----4\2/4/9~~~~~~~~--------|
D|---7-------------------------------------------|---------------------------------------9p7-9-|
A|-7---------------------------------------------|---------------------------------------------|
E|-----------------------------------------------|---------------------------------------------|

Bridge
e|------------------------------------------|
B|--------------------------------------(7)-|
G|--------------------------------------(7)-|
D|-----------9-7----7-----------------------|(x2)
A|------7-9------9----9-7--9-7--------------|
E|-7-10------------------------10--7--------|

Verse 2
e|--------------------------------------------------------------------------------17-----------------|
B|-(19)r17p15--17b19r17b19---17b19-17-15----15-17-15-17b19--17b19--17b19--17b19------17b19~~~~r17p15-|
G|---------------------------------------16----------------------------------------------------------|
D|---------------------------------------------------------------------------------------------------|
A|---------------------------------------------------------------------------------------------------|
E|---------------------------------------------------------------------------------------------------|

e|-10b12--10~~~7----10-7----8b9~~~~7h9p7----7----------------------|
B|---------------7-------7---------------10---7-10-7---7-----------|
G|---------------------------------------------------9---9/11~~~~\-|
D|-----------------------------------------------------------------|
A|-----------------------------------------------------------------|
E|-----------------------------------------------------------------|

e|----------------------------------------------------------|------------------------------------------------|
B|-------14-15~~14--17~~15--17b20~~~~~~~~17b19~~~~~~~r17p15-|-12\10/12/15~~~~~~17b19--------12\10/12/15~~~~\-|
G|----14----------------------------------------------------|------------------------------------------------|
D|-14-------------------------------------------------------|--

Joe Finger Ledoux chords – Robert Charlebois

 Robert Charlebois – Joe Finger Ledoux

 Amaj7 Cdim Dmaj7 E7 
Je prends mon or dans l'art, je fais des dollars
 Amaj7 Cdim Dmaj7 E7  
En jouant du cara...ha ...mel ni dur ni mou
 C#m7 F#m7 Bm7 E7 
Et j'envoie au ciel ceux qui sont pas trop saouls
 Am7 D7 Gmaj7 E7 
Qui me lancent leur vieux trente sous en me disant joue KITITIKITITOU

 Amaj7 Cdim Dmaj7 E7 
Et je leur souris pour gagner ma vie
 Amaj7 Cdim Dmaj7 E7 
Ils me font merci, continuent leur bruit
  C#m7 F#m7 Bm7 E7 
Ou viennent dans mon dos pour taper sur un Do
       Am7 D7 Gmaj7 E7 
Ou baver sur les notes du piano bar où je joue chaque soir

 Amaj7 Cdim Dmaj7 E7 
I'll remember you, Good bye Honolulu
 Amaj7 Cdim Dmaj7 E7 
Un petit peu de tout  Je suis un voyou
 C#m7 F#m7 Bm7 E7 
Quand ils prennent la porte y a trop d'bière entre les notes 
                   Am7 D7 
que je peux plus jouer de fox trot
                 Gmaj7 E7 
Je me paye un Blues À la Finger Ledoux

(interlude)
 Amaj7  |  Cdim   |  Dmaj7  |  E7  x2
 C#m7  |  F#m7  |  Bm7  |  E7  |  Am7  |  D7  |  Gmaj7  |  E7 Amaj7 Cdim Dmaj7 E7 
J'ai mon camp dans le Nord,  une grosse bague en or
 Amaj7 Cdim Dmaj7 E7 
Un beau météor prop'en dedans comme en dehors.  On me crie encore
 C#m7 F#m7 Bm7 E7 
Je suis aux oiseaux, le monde me lance des bravos
          Am7 D7 Gmaj7 F7 E7 
J'ai appris par oreille Mais ça me fait des sacrés bonnes payes
                                Am7 
Mais ça fait des, mais ça fait des
   D7 G7 
Sacrés bonnes payes

(Thank you - Merci)

Games People Play chords – Joe South V3

 SONG:   GAMES PEOPLE PLAY
ARTIST: JOE SOUTH
TAB BY: DON CZARSKI
EMAIL:  GUITARZAN7@HOTMAIL.COM


                     GAMES PEOPLE PLAY
                         JOE SOUTH


CAPO: 2nd FRET - (In videos Joe South has a capo on the 2nd fret)
                  
INTRO:

DANELECTRO ELECTRIC SITAR (FEEL FREE TO IMPROVISE)
   
    G D C D7 G 
E --------------|-----------------|------------|-----------|
B -----3--------|------3----------|-------3-5--|-----------|
G -2/4---0-0-0--|--2/4---4-2-2-2--|--2/4-------|--2/4-2-0--|
D --------------|-----------------|------------|-----------|
A --------------|-----------------|------------|-----------|
E --------------|-----------------|------------|-----------|

    G D 
E ------------------|-------------------|
B ------------------|-------------------|
G -2/4-4-2-0-0-0-0--|--2/4-4-2-0-2-2-2--|
D ------------------|-------------------|
A ------------------|-------------------|
E ------------------|-------------------|

             C D7 G 
E -----------------|------------------|
B --------3-5-5-5--|--5-5\3-----------|
G --2-2/4----------|--------4-2-0-0-0-|
D -----------------|------------------|
A -----------------|------------------|
E -----------------|------------------|


VERSE:
 G 
La da da da da da da 
             D 
La da da da da da de
          C         
La-da da da da da 
 D7 G 
 La da da da 


VERSE:
 G                        
Oh, the games people play now,
                        D 
Every night and every day now
                          C        
Never meaning what they say now,
 D7 G 
 Never saying what they mean


VERSE:
   G 
While they wile away the hours,
                 D 
In their ivory towers
                               C        
'Til they're covered up with flowers,
         D7 G 
In the back of a black limousine, woah-ah


CHORUS:
 G 
La da da da da da da 
             D 
La da da da da da de
                C           
Talking 'bout you and me,
 D7 G 
  And the games people play now


VERSE:
 G 
Oh, we make one another cry,
                        D 
Break a heart then we say goodbye
                          C    
Cross our hearts and we hope to die,
 D7 G 
 That the other was to blame, woah-ah


VERSE:
  G 
Neither one will ever give in,
                    D 
So we gaze at our eight by ten
                                 C               
Thinking 'bout the things that might have been,
 D7 G 
 And it's a dirty rotten shame, woah-ah


CHORUS:
 G 
La da da da da da da 
             D 
La da da da da da de
                C           
Talking 'bout you and me,
 D7 G 
  And the games people play, now


INSTRUMENTAL:

      G D C                  
Oh yeah, alright, oh yeah
      D7 G 
Come on, come on, come on, come on, come on

    G D 
E ------------------|-------------------|
B ------------------|-------------------|
G -2/4-4-2-0-0-0-0--|--2/4-4-2-0-2-2-2--|
D ------------------|-------------------|
A ------------------|-------------------|
E ------------------|-------------------|

             C D7 G 
E -----------------|------------------|
B --------3-5-5-5--|--5-5\3-----------|
G --2-2/4----------|--------4-2-0-0-0-|
D -----------------|------------------|
A -----------------|------------------|
E -----------------|------------------|

Let me hear i

My Fathers Son chords – Joe Cocker

 G# G Cm   /x2

             Fm G Cm  
Heart over mind, yes I'm my father's son,
             Fm G Cm  
I live my life, just like my father's done
          G# G Cm 
If he'd told me, one day that somebOdy'd have my heart in chains
           G# G Cm 
Would I believe it, no way Made up my mind I'd never fall that way

             G# Gm   
But tell me why everytime I try, 
                      Fm D# 
to tell you it's goodbye I can't seem to let Go
        G# Gm 
In my heart I know I want to stay
                     C G 
What I'm trying to say

             Fm G Cm  
Heart over mind Yes I'm my father's son
             Fm G Cm  
And I'm inclined to Do As my fathers done

 G# G Cm  /x2

 A#m D# 
Here I Am with you
                       G# 
And I know that it's true
 C# A#m 
Despite all the feelings
 D# G# 
You are putting me through
 C# C A#m G 
I try to walk away, something makes me stay

             Fm G Cm  
Heart over mind, yes I'm My father's son
             Fm G Cm  
I live my life, just like My father's done

             G# Gm   
But tell me why everytime I try, 
                      Fm D# 
to tell you it's goodbye I can't seem to let Go
        G# Gm 
In my heart, I know I want to stay, 
             C G 
Never run away

             Fm G Cm  
Heart over mind, yes I'm my father's son,
             Fm G Cm  
I live my life, just like my father's done
          G# G Cm 
If he'd told me, one day that somebOdy'd have my heart in chains
           G# G Cm 
Would I believe it, no way Made up my mind I'd never fall that way

             Fm G Cm  
Heart over mind, yes I'm My father's son
             Fm G Cm G 
And I would try to Do As my fathers done. 

             Fm G Cm  
Heart over mind, yes I'm My father's son

Dairybeat – Please No More – Joe Cocker – Cover chords

 DAIRYBEAT: PLEASE NO MORE (D. Egan/G. Hansen) 4/4 - 40

|     |: Measure of 4-Counts with Chord(s)


Intro: | G Em D | G Em D | G Em D | G Em 

Verse 1:

 D          | G                      | D 
WE START A FIGHT,  WHO KNOWS WHAT FOR.  

              | G Bm                  | C 
WHO KNOWS WHO'S WINNING,   OR WHO'S KEEPING SCORE.

                | G              | D 
YOU SAY IT'S ALL RIGHT,  AS YOU SLAM THE DOOR.

         | C                  | G                | C 
ALL I CAN SAY IS,  PLEASE NO MORE,  PLEASE NO MORE.

Chorus:

          | Em                  | G                          | D 
I'VE HAD E-NOUGH,  AFTER HOW I SWORE,  I'D NEVER GIVE YOU UP.

              | C                          | Em 
LOVIN’ YOU WAS EASY,  BUT ONE THING'S FOR SURE.  

        | G D                              | G     | G Em D | G Em 
IT AIN’T ME, IT AIN'T ME, YOU'RE TRYIN’ TO PLEASE NO MORE.

Verse 2:

 D             | G           | D 
PASSIONS WILL BURN,  BURN ENDLESSLY.

          | G Bm           | C 
ALL THAT'S LEFT BEHIND,   ARE THESE BROKEN DREAMS.

                      | G                 | D 
WHILE I STILL GOT SOME PIECES,  LAID OUT ON THE FLOOR.

              | C                | G                | C 
I'M ASKING YOU BABY,  PLEASE NO MORE,  PLEASE NO MORE.

Chorus:

          | Em                  | G                          | D 
I'VE HAD E-NOUGH,  AFTER HOW I SWORE,  I'D NEVER GIVE YOU UP.

              | C                          | Em 
LOVIN’ YOU WAS EASY,  BUT ONE THING'S FOR SURE.  

        | G D                              | G     | G Em D | G Em 
IT AIN’T ME, IT AIN'T ME, YOU'RE TRYIN’ TO PLEASE NO MORE.

Bridge:

        | Bm            | Em            | Bm 
IT AIN'T ME,  IT AIN'T ME.  I DIDN’T MEAN,

             | D             | C 
IT JUST CAN’T BE, PLEASE NO MORE.

Chorus:

          | Em                  | G                          | D 
I'VE HAD E-NOUGH,  AFTER HOW I SWORE,  I'D NEVER GIVE YOU UP.

              | C                          | Em 
LOVIN’ YOU WAS EASY,  BUT ONE THING'S FOR SURE.  

        | G D                              | G     | G Em D | G Em 
IT AIN’T ME, IT AIN'T ME, YOU'RE TRYIN’ TO PLEASE NO MORE.

Outro:
                                                              / /  /
        | G D                              | G     | G D D7 | G 
IT AIN'T ME, IT AIN'T ME, YOU'RE TRYIN’ TO PLEASE NO MORE.


Tab by: DAIRYBEAT (André H. Hofman, Purmerend, Netherlands).
FREE* Dairybeat ORIGINALS, COVERS and BACKING TRACKS on:
http://www.soundclick.com/bands/default.cfm?bandID=137360&content=music

https://www.youtube.com/user/Dairybeat

A Celebration Tabs by Joe Satriani

 Joe Satriani
A Celebration
Unstoppable Momentum

E|----------------------------------|
B|--5/8-8--10--8--------------------|
G|----------------9--9/7--5--7/9----|
D|----------------------------------|
A|----------------------------------|
E|----------------------------------|

E|------------------------------|
B|--8/10--8---------------------|
G|-----------9--7--9--7/5-------|
D|------------------------------|
A|------------------------------|
E|------------------------------|

E|--------------------------------------------------|
B|------------5/8--10/12--12/13--13/15--15/17--13---|
G|--5/7--7/9----------------------------------------|
D|--------------------------------------------------|
A|--------------------------------------------------|
E|--------------------------------------------------|

E|------------------------------------|
B|--12-12--13-13----------------------|
G|------------------------------------|
D|----------------------9-9--10-10----|
A|------------------------------------|
E|------------------------------------|

E|-----------------------------------|
B|--5/8-8--10--8---------------------|
G|----------------9--9/7--5--7b9-----|
D|-----------------------------------|
A|-----------------------------------|
E|-----------------------------------|

E|-----------------------------------|
B|--8/10--8--------------------------|
G|-----------9--7--9--7/5----7b9-----|
D|-----------------------------------|
A|-----------------------------------|
E|-----------------------------------|

E|-------------------------------|
B|--8/10--8----------------------|
G|-----------9--7--9--7----------|
D|-----------------------5/7-----|
A|-------------------------------|
E|-------------------------------|

E|------------------------|
B|------------------------|
G|--5/7--7--9--7--4--5----|
D|------------------------|
A|------------------------|
E|------------------------|

Pre-chorus (may not be perfect)

E|--------------------------------------------------------|
B|--------------------------------5--8--8/10--5--8--8/10--|
G|-----------------------4--5--7--------------------------|
D|-----------------5--7-----------------------------------|
A|--------------7-----------------------------------------|
E|--0--3--5--7--------------------------------------------|

Chorus

E|------------------------------------------------------------|
B|------------------------------------------------------------|
G|--10-14-10---16-16-16-14-14-9-9---10-14-12--10--7--9--9/12--|
D|------------------------------------------------------------|
A|------------------------------------------------------------|
E|------------------------------------------------------------|

E|---------------------------------------------------------------|
B|-----------------------------------------------12--13/15--13---|
G|--10-14-10---16-16-16-17-17-12-12---10--12-14------------------|
D|---------------------------------------------------------------|
A|---------------------------------------------------------------|
E|---------------------------------------------------------------|

Solo

Ending Solo Riff (Before second chorus)

E|--20-20-19-19-17-17----------------------------------------| } R
B|--------------------20-20-18-18-17-17----------------------| } E
G|--------------------------------------19-19-17-17-----} P--| X3
D|-----------------------------------------------------------| } E
A|-----------------------------------------------------------| } A
E|-----------------------------------------------------------| } T

E|------------------------------|
B|------------------------------|
G|--17/19-19--21--19--16--17----|
D|------------------------------|
A|------------------------------|
E|------------------------------|

Repeat chorus twice, second time with couple of lead fills.
End on a C5

G|--5--|
D|--5--|
A|--3--|
E|-----|

Jelly Roll intro Tabs by Joe Bonamassa V2

 -------------------------------------------------------------------------------
                             JELLY ROLL (ACOUSTIC) - Joe Bonamassa
-------------------------------------------------------------------------------
: Doug Koehler


Tuning: EADGBE (Capo on 3rd fret). Fret numbers are relative to the capo.

This is the version from An Acoustic Evening At The Vienna Opera House


Intro 1: (Repeat 4x)
e|---------------------------------------------------------------0---------|
B|---------------------------------------------------------0--3-----3--0---|
G|-(2)---2--0--------0--------------2-------2--0--------0------------------|
D|-(2)---------4--------2--0----------------------4------------------------|
A|--0-------------0-----------3--0-----0-------------0---------------------|
E|-------------------------------------------------------------------------|

Intro 2:
e|-------2--------2--------2--------2--------2--------2--------2-------------|
B|----------3--------3--------3--------3--------3--------3--------3----------|
G|-------------2--------2--------2--------2--------2--------2--------2-------|
D|--0-------------------------------------------------------------------0----|
A|---------------------------------------------------------------------------|
E|---------------------------------------------------------------------------|

e|-----------------------------------------------------0----2----3----2------|
B|-----------------------------------------------------0----3----3----3------|
G|-------2--0--------0--------------2-------2--0--2----1----2----0----2------|
D|-------------4--------2--0----------------------2----2----0----0----0------|
A|--0-------------0-----------3--0-----0----------0----2---------2-----------|
E|---------------------------------------------------------------3-----------|

e|---------------------------------------------------------------------------|
B|---------------------------------------------------------------------------|
G|-------2--0--------0--------------2-------2--0--2--------------------------|
D|-------------4--------2--0----------------------2--------------------------|
A|--0-------------0-----------3--0-----0----------0--------------------------|
E|---------------------------------------------------------------------------|

A Va Pas Changer Le Monde chords – Joe Dassin

 E 
C'est drôle, tu es partie, 
                           A B     
Et pourtant tu es encore ici, 
          F#m B E 
Puisque tout me parle de toi : 
      C#m F#m B C#m       
Un parfum de femme, l'écho de ta voix. 
        A E 
Ton adieu, je n'y crois pas du tout, 
                F#m B E 
C'est un au revoir, presqu'un rendez-vous... 


 E B E B   
Ça va pas changer le monde, 
 E B F#m 
Il a trop tourné sans nous. 
                C#m F#m B 
Il pleuvra toujours sur Londres...
 F#m B E B 
ça va rien changer du tout. 
 E B E B 
Qu'est-ce que ça peut bien lui faire, 
 E A 
Une porte qui s'est renfermée? 
                E 
On s'est aimés, n'en parlons plus, 
 F#m B E C 
Et la vie continue. 


 F C F C                     
Ça va pas changer le monde 
 F C Gm 
Que tu changes de maison. 
             Dm Gm C 
Il va continuer, le monde, 
 Gm C F C 
Et il aura bien raison. 
 F C F C 
Les poussières d'une étoile, 
 F Bb 
C'est Ça qui fait briller la voie lactée... 
                 F 
On s'est aimés, n'en parlons plus, 
 Gm C F C# 
Et la vie continue. 

 F# C# F# C# 
Ça va pas changer le monde, 
 F# C# G#m 
Ça va pas le déranger. 
               D#m G#m C# 
Il est comme avant, le monde, 
 G#m C# F# C# 
C'est toi seule qui as changé. 
 F# C# F# C# 
Moi, je suis resté le même, 
 F# B 
Celui qui croyait que tu l'aimais... 
                   F# 
c'était pas vrai, n'en parlons plus, 
 G#m C# F# 
Et la vie continue.

Shine On American Dreamer Tabs by Joe Satriani

 Joe Satriani
Shine on American Dreamer
Unstoppable Momentum


Intro
(Listen for timing)

E|-------------------------------|
B|--3-----3--3-3--3-----3--3--3--|
G|--2-----0--0-0--2-----0--0--0--|
D|--0-----0--0-0--0-----0--0--0--|
A|--------2--2-2--------2--2--2--|
E|--------3--3-3--------3--3--3--|

Intro Riff

E|--------------------------------------------------------|
B|--------------------------------------------------3-3---|
G|--9h11-9--------------4-4-4h5-4--2----------------0-0---|
D|--0----0--0-0-0-0-0-0-0-0-0---0--0--0-0-0-0-0-0---0-0---|
A|--------------------------------------------------2-2---|
E|--------------------------------------------------3-3---|
            pm=========               pm=========

E|--------------------------------------------------------|
B|-------------------------------------------------3-3----|
G|--9h11-12-------------4-4-4h5-4--2---------------0-0----|
D|--0----0--0-0-0-0-0-0-0-0-0---0--0-0-0-0-0-0-0---0-0----|
A|-------------------------------------------------2-2----|
E|-------------------------------------------------3-3----|
           pm==========              pm=========
Main Lead

E|---------------------------------------------------------|
B|---------------------------------------------------------|
G|--12/14--14-14--14-14-14/16--16-16-16/17--17-17-17/19-16-|
D|---------------------------------------------------------|
A|---------------------------------------------------------|
E|---------------------------------------------------------|

E|-----------------------------------|
B|-----------------------------------|
G|--16-16/14--14-14/12--12/14--14----|
D|-----------------------------------|
A|-----------------------------------|
E|-----------------------------------|

E|----------------------------------------------------------|
B|----------------------------------------------------------|
G|--12/14--14-14--14-14-14/16---16-16-16/17--17-17-17/19-16-|
D|----------------------------------------------------------|
A|----------------------------------------------------------|
E|----------------------------------------------------------|

E|----------------------------------------------------------|
B|----------------------------------------------------------|
G|--16-16/14--14-14/12-12--12--12-11-12-11-12-11-12-11/7----|
D|----------------------------------------------------------|
A|----------------------------------------------------------|
E|----------------------------------------------------------|

Chorus

E|--7-7-7-7-7-7-7/9-9-9/10-10-10-10-10-10-10-10/12-12-12/14-|
B|--X-X-X-X-X-X-X-X-X-X-X--X--X--X--X--X--X--X-X---X--X-X---|
G|--4-4-4-4-4-4-4/6-6-6/7--7--7--7--7--7--7--7/9---9--9/11--|
D|----------------------------------------------------------|
A|----------------------------------------------------------|
E|----------------------------------------------------------|

E|--11-11-11-11-11-11-11/10-10-9-10--9-7--5-7----|
B|--X--X--X--X--X--X--X-X---X--X-X---X-X--X-X----|
G|--9--9--9--9--9--9--9/7---7--6-7---6-4--2-4----|
D|-----------------------------------------------|
A|-----------------------------------------------|
E|-----------------------------------------------| 

E|--7-7-7-7-7-7-7/9-9-9/10-10-10-10-10-10-10-10/12-12-12/14-|
B|--X-X-X-X-X-X-X-X-X-X-X--X--X--X--X--X--X--X-X---X--X-X---|
G|--4-4-4-4-4-4-4/6-6-6/7--7--7--7--7--7--7--7/9---9--9/11--|
D|----------------------------------------------------------|
A|----------------------------------------------------------|
E|----------------------------------------------------------|

E|--17--15-14--12-14-11-10--9--10--9---9--7--5--7------|
B|--X---X--X---X--X--X--X---X--X---X---X--X--X--X------|
G|--14--12-11--9--11-9--7---6--7---6---6--4--2--4------|
D|-----------------------------------------------------|
A|-----------------------------------------------------|
E|-----------------------------------------------------|

Solo

Got What You Need chords – Eskimo Joe

 Intro:  E ,  A ,  E ,  A 

Verse 1

        E A 
In the cool of the evening time
           E A 
She will rise from above
          E A 
All she wants is the easy life
               E                      
But all she gets is enough
 A C#m B 
Just enough


Chorus 1

  E A 
Ooo, ooo
        E 
If you want it, you got it

  A C#m B 
I got what you need
  E A 
Ooo, ooo
         E         
If you want it, you got it
  A C#m B 
I got what you need


Verse 2

             E A 
Well she lives in an easy town
          E A 
With a sky scraper smile
            E A 
But she just want to burn it all down
                   E 
'Cause she's burning inside
  A C#m B 
And she cries


Chorus 2

    E A 
Ooo, ooo
          E 
If you want it, you got it

    A C#m B 
I got what you need
    E A 
Ooo, ooo
           C#m         
If you want it, you got it
    A C#m B 
I got what you need


Bridge

 C#m A E A               
And money only buys you a brand new dress
 C#m A             
Well I cant tell you what to believe
 C#m A C#m B 
I got what you need


Chorus 3 

    E A E 
If you want it, you got it

    A C#m B E A 
Ooo, ooo
           C#m         
If you want it, you got it
    A C#m B 
I got what you need


Verse 3

 E A 
So they say this is happiness
 E A C#m B 
And money only buys you a brand new dress
        E A 
Well I cant tell you what to believe
           C#m 
If you want it you got it
    A C#m B 
I got what you need

Outro 

   E A 
Ooo, ooo

X-ray Style Tabs by Joe Strummer And The Mescaleros

 Verse and Chorus:
G[------------------------------------------|
D[------------------------------------------|
A[------------------------------------------|
E[--0-0--0-0-0-0--7-7--7-7-7-7--------------|

G[------------------------------------------|
D[------------------------------------------|
A[------------------------------------------|
E[--0-0--0-0-0-0--7-7--7-7-7-7--------------|

G[------------------------------------------|
D[------------------------------------------|
A[------------------------------------------|
E[--5-5--5-5-5-5--0-0--0-0-0-0--------------|
(This bottom part is usually at the end of the chorus)
G[------------------------------------------|
D[------------------------------------------|
A[------------------------------------------|
E[--5-5--5-5-5-5------2-5-------------------|

Ending:
G[------------------------------------------|
D[------------------------------------------|
A[------------------------------------------|
E[-555555555-0--5555555555-0-5555555555-0-5-|

A little bit of a raw tab I picked up by ear.

Undercover Agent For The Blues chords – Tony Joe White

 Undercover Agent For The Blues:Tony Joe White.
Album - Closer To The Truth - on REMARK Records
in 1991.
**(Had a request for chords for this one but I lost 
   their name. If you see this, please e-mail me??)

INTRO:  A Em A .. E D E Em .. E Em E Em 

#1.
 E 
She was my lover..she was workin' undercover..oh, the 
            Em 
woman knew all of the moves.
 Em 
She really had me romping..we were barefoot stompin'
     E Em E 
she just kept ignitin' my fuse.

#2.
 E Em 
I was blinded by the blackness of her long silk stockins'..
         E 
she was rockin' with an optical illusion.
 E 
This ain't how I thought it'd be, she just kept on keepin' me 
               Em E Em 
in a state of total confusion.

CHORUS:
     D G A E 
She took me for a ride..rattled me down to my shoes.
 E C B Em 
I found out she was an undercover agent for the blues.

#3.
 Em E 
She never really needed love, omni-directional..I was just an 
            Em 
innocent bystander.
 Em E 
She kept on getting kinkier..I say hook, line, and sinker, she was

just, just too hot to handle.

CHORUS:
     G A E 
She took me by storm..it must have been a season for the fools.
            C Bm Em 
She was so bad..an undercover agent for the blues.

INTERLUDE:  Em .. A E Em .. E C B E 

#4.
 E A D Em 
I was blinded by the blackness of her long silk stockins'..
 Em 
she was rockin' with an optical illusion.
 Em E 
This ain't how I thought it'd be, she just kept on keepin' me 
                     Em     
in a state of total confusion.

CHORUS:
     G A Em 
She took me for a ride..rattled me down to my shoes.
         C B E 
I found out, she was an undercover agent for the blues.


            C B E 
She was so bad..an undercover agent for the blues.
        C Bm Em D Em D Em 
Mmmmm..mmmmmmmm..mmmmm..mmmmmmmm...........(Fade.)



A nineties smash from Kraziekhat.

Say It Aint So Joe chords – Murray Head V2

    SAY IT AINT SO, JOE... by Murray Head

Capo on 3rd Fret sounds good to me.
Intro:

 D Am7  (Slide up 2 frets and back down again Em11[no 5th] Apparently?)   Em C G   (x2)
Chorus:

 D Am7            Em11[no5th]   Am7 
 Say it ain't so Joe, please, say it ain't so
 Em           
 That's not what I wanna hear Joe
         C G 
Ain't I got a right to know
 D Am7            Em11[no5th]   Am7 
 Say it ain't so Joe, please, say it ain't so
 Em    
 I'm sure they're telling us lies Joe
        C G 
Please tell us it ain't so

Verse 1:
   
      D                         
They told us that our hero has played his trump card
    Am7                  Em11[no5th]   Am7 
He doesn't know how to go on
       Em   
We're clinging to his charm and determined smile 
         C G 
But the good ol' days have gone
Chorus:

Verse 2:
     D 
The image and the empire may be falling apart
    Am7                  Em11[no5th]   Am7 
The money has gotten scarce
 Em 
 One man's word held the country together
         C G 
But the truth is getting fierce

Chorus:
 D Am7            Em11[no5th]   Am7 
 Say it ain't so Joe, please, say it ain't so
 Em  
 We pinned our hopes on you Joe
             C G 
And they're ruining our show

Break:
[Strum From Here Til Fade]
 Bm7 F#m7 Em A 
 Ooh babies, don't you think we're gonna get burned
 Bm7 F#m7 Em C 
Ooh babies, don't you think we're gonna get burned
                 Am F   
we're gonna get turned, we're gonna get learned
                      D Em  
Yes, we're gonna get turned, we're gonna get burned
                 C 
we're gonna get learned, 
                     Am 
Yes,we're gonna get turned
                 F D 
we're gonna get burned, we're gonna get learned
                      Em C 
yes, we're gonna get turned, we're gonna get burned
 Am F D G 
Ohhhhh Ohhhhh Ohhhhh Ohhhhh Ohhhhh Ohhhhh Ohhhhh Ohhhhh Ohhhhh Ohhhhh Ohhhhh

Verse 3:

 D Am           Em11[no5th]   Am7 
 Say it ain't so Joe, please, say it ain't so
 Em           
 That's not what I wanna hear Joe
         C G 
Ain't I got a right to know
 D Am           Em11[no5th]   Am7 
 Say it ain't so Joe, please, say it ain't so
 Em    
 I'm sure they're telling us lies Joe
        C G 
Please tell us it ain't so

(Repeat to Fade)


CHORDS:
---------------

    D Am Am7 Em     Em11[no5th]     C G E Bm7 F#m7 A     
 
 EADGBE  EADGBE  EADGBE  EADGBE    EADGBE     EADGBE  EADGBE  EADGBE  EADGBE  EADGBE  EADGBE   
 x00232  002210  x02010  022000    004030     x32010  320003  022100  224232  242222  002220

 Bernard Akehurst bakehurst@nospamntlworld.com 2013

Lonely Town Lonely Street Tabs by Joe Bonamassa V2

 Lonely Town Lonely Street Tab by Joe Bonamassa

+ --------------------------------------------------------------------- +
| Ultimate Guitar Tabs Archive - your #1 source for tabs!               |
| http://www.ultimate-guitar.com/                                       |
|                                                                       |
| Over 800,000 guitar, guitar pro and bass tabs! Also lessons, news,    |
| columns and guitar forums!                                            |
+ --------------------------------------------------------------------- +

Artist: Joe Bonamassa
Song: Lonely Town Lonely Street

Lonely Town Lonely Street   written by Bill Withers
version by Joe Bonamassa

Originally  Andrew Gerber, edited Paul Millband

Cheers to Andrew, but I think it was a tiny bit off on riffs 1&2. This
sounded more accurate/better to me.

Use bar chords. the first finger lays over the 2nd fret anmd only moves left
and right for the chords. use my third finger to bar the 4th fret stuff but thats more up to you

And is best with an electric guitar setting the pick up to 2nd from left
(not fully left to the rythem setting but has a bit of centre pickup too),
the tone setting set relatively high (depending on ythe guitar) and of
course a bit of distortion on the amp. This only my opinion and may be wrong

standard tuning
  Riff 1                      Riff 2
E]------------------------------------------------|
B]------------------------------------------------|
G]---4-4-2-4--------------------------------------|
D]---4-4-2-4------------------4-4-2-4-------------|
A]---2-2-0-2------------------4-4-2-4-------------|
E]----------------------------2-2-0-2-------------|

  Riff 3
E]------------------------------------------------|
B]------------------------------------------------|
G]------------------------------------------------|
D]------------0-----------------------------------|
A]--2-2-0h2-0---2-2-0h2-0-2-----------------------|
E]------------------------------------------------|


intro  Riff 1 repeated

Riff 1 repeated
You can live your life in a crowded city
You can walk along a crowded street

Riff 2 repeated
But the city really ain't no bigger than the friendly
People, friendly people that you meet

Riff 3 repeated
Friendly people that you meet

Riff 1 repeated
You might be a sweet young, sweet young pretty pretty
And at the dances you can't keep your seat

Riff 2
But if dances don't lead to romances
You might as well be born, born with two left feet

Riff 3 repeated
be born with two left feet

guitar solo---Good Luck!

follow same above riffs for below lyrics

You might be a sweet toned sure nuff high-class talker
You might be a stone, stone expert at kissing
But it don't do too much good to be talkin
Brother, when there ain't no, ain't nobody lis-nin
ain't nobody lis-nin
And if you are shy, just not much of a talker
Don't impress the people that you meet
You might as well be a lonely walker in a lonley town, on a lonely street
on a lonely street

Riff 1 to end of song

END

+--------------------------------------------------------------------------+
| This file is the author's own work and represents their interpretation   |
| of the song. You may only use this file for private study, scholarship,  |
| or research.                                                             |
+--------------------------------------------------------------------------+

Ultimate-Guitar.Com © 2013

Set Em Up Joe chords Vn Gosdin

 Set Em Up Joe 
Vern Gosdin

INTRO:  D G D G D G D G D 
They got a vintage Victrola 1951
                                    G D G D 
Full of my favorite records that I grew up on
                                         G D 
They got ole Hank and Lefty and there's B-24
                           G D 
Set 'em up Joe, and play 'Walking The Floor'.
                           G D 
Set 'em up Joe, and play 'Walking The Floor'.

CHORUS:
           G A D 
I'm gonna spend the night like every night before
 A D 
Playin' these tunes and I'll play 'em some more
            G A D Bm 
I've gotta have a shot of them old troubadours
      D G D 
Yeah, Set 'em up Joe, and play 'Walking The Floor'.
                           G D G D 
Set 'em up Joe, and play 'Walking The Floor'.

INTRO
            D G D G D 
All my neon neighbors they like what I play
               D G D G D 
Cause they've heard it every night since you've walked away
            D G D   
Every day they replay old B24
              D G D   
'Cause every night I run a needle through 'Walking The Floor'
              D G D G D 
'Cause every night I run a needle through 'Walking The Floor'

CHORUS:
           G A D 
I'm gonna spend the night like every night before
 A D 
Playin' these tunes and I'll play 'em some more
            G A D Bm 
I've gotta have a shot of them old troubadours
      D G D 
Yeah, Set 'em up Joe, and play 'Walking The Floor'.
                           G D G D 
Set 'em up Joe, and play 'Walking The Floor'.

        D G D 
I said set 'em up Joe, and play 'Walking The Floor'
                           G D 
Set 'em up Joe, and play 'Walking The Floor'.

Kaze Ni Naru chords – Joe Hisaishi

 This is originally played on the ukulele, but I transposed it for guitar. I play 
it on Capo 5th on guitar.

Capo 5
Intro: C* (hold for four) G* (hold for four) 
C* (hold for two)D* (hold for two) G (play for eight)

[Verse 1]
 G Em 
wasure te ita me o toji te
             C D 
tori modose koi no uta
               Bm Em 
aozora ni kakure te iru
              C D 
te o nobashi te mou ichido

[Verse 2]
           G Em 
wasurenai de sugu soba ni
                 C D 
boku ga iru itsuno hi mo
             Bm Em 
hoshizora o nagame te iru
             C D G 
hitori kiri no yoake mo

[Pre-Chorus]
             C Cm 
tatta hitotsu no kokoro 
 G Em 
kanashimi ni kure nai de
               A 
kimi no tame iki nante
              D Dsus4 D 
haru kaze ni kae te yaru

[Chorus]
        G D 
hi no ataru saka michi o
             Em Bm 
jitensha de kake noboru
          C 
kimi to naku shita
 G A D  
omoide nose te yuku yo

 G D 
LALALALALA kuchi zusamu
             Em Bm 
kuchibiru o some te yuku
          C G C D G 
kimi to mitsuke ta shiawase hana no youni

[Verse 3]
            G Em 
wasure te ita mado akete
              C D 
hashiri dase koi no uta
           Bm Em 
aozora ni taku shite iru
            C D 
te o gaza shite mou ichido

[Verse 4]
               G Em 
wasure nai yo sugu soba ni
              C D 
kimi ga iru itsu no hi mo
              Bm Em 
hoshizora ni kaga yai te iru
            C D G 
namida yureru ashita mo

[Pre-Chorus]
             C Cm 
tatta hitotsu no kotoba 
 G Em 
kono mune ni daki shimete
               A 
kimi no tame boku wa ima
              D Dsus4 D 
haru kaze ni fukare teru

[Chorus]
        G D 
hi no ataru saka michi o
             Em Bm 
jitensha de kake noboru
          C G 
kimi to chakatta yakusoku
 C D 
nose te yuku yo
 G D 
LALALALALA kuchi zusamu
             Em Bm 
kuchibiru o some te yuku
          C G C D C 
kimi to deaeta shiawase inoru youni

Instrumental Break:  D Bm Em C C D Bm Em C D 

[Chorus]
        G *                 D *
hi no ataru saka michi o
             Em *           Bm *
jitensha de kake noboru
          C G 
kimi to chakatta yakusoku
 C D 
nose te yuku yo
 G D 
LALALALALA kuchi zusamu
             Em Bm 
kuchibiru o some te yuku
          C G C D G 
kimi to deaeta shiawase inoru youni
          C G C D C 
kimi to deaeta shiawase inoru youni

Ending:  G <sp

Global A Go-go chords – Joe Strummer And The Mescaleros

 Artist: Joe Strummer & The Mescaleros
Song: Global a Go-Go
Written by: Joe Strummer
 Global a Go-Go
Tab: Philippe Danet
 philippedrulz

Intro:  Am  -  G  X2


                        Am 
World service bulletin
 Em 
From the nightshift D.J.
 Am 
To all wavebands on earth
 Em 
Reconnoitre on the killahertz


 Am 
This tune is going out to Marconi
 Em 
To all corners of the globe
 Am 
There ain't no hut in the Serengeti
 Em 
Where my wavelengths do not probe
 Am 
If a rocket went to Saturn
 Em 
We sure hope a D.J. is on board
 Am 
For some anti-gravity mixing
 Am 
With two dub plates of U-Roy


 G 
Throwdown Stray Cat strut in Bulawayo - hey, Bulawayo
 E 
Buddy Rich in Burundi
 G 
Quadrophenia in Armenia
 E 
Armenia City In The Sky
 G 
Big Youth booming in Djkarta
 E 
Nina Simone over Sierra Leone
 G 
Wild sound of Joujouka in Nevada - hey, Joujouka
 E 
Everywhere, everywhere Bob's bringing it all back home


-5-7-8---7-8-10---7-8-10---8-7-5-----|
-------------------------------------|
-------------------------------------|
-------------------------------------|
-------------------------------------|
-------------------------------------|x2


 Am 
Yeah, I let the boogie-woogie rumble
 Em 
In the back of Bangalore
 Am 
I get complaints from Bondi Beach
 Em 
What, no longboard surf hardcore
 Am 
Oh, send the rock steady out to Freddy
 Em 
Who juggles plates in Tsing Tao City


                  G 
Cos tonight Bo Diddley's in Finland Station - hey, Bo Diddley
 E 
Sun Ra's in Omaha
 G 
The Skatalites in New York City - hey, Skatalites
 E 
The Stooges rule over Habana
 G 
The Bhundu Boys rock Acapulco - hey, hey Bhundu Boys
 E 
Good hip hop in Islamabad
 G 
Ali Farke Toure's in Oaxaca - hey, Farke Toure
 E 
And Baaba Maal's all over Stalingrad


-5-7-8---7-8-10---7-8-10---8-7-5-----|
-------------------------------------|
-------------------------------------|
-------------------------------------|
-------------------------------------|
-------------------------------------|x2


 Am 
Yeah, while some are waking, some are sleeping
 Em 
From Kamchatka to the Gabon
 Am 
Above the tradewind, wingtips beating
 Em 
We calling out for Ronnie and da-do Ron, Ron, Ron


-5-7-8---7-8-10---7-8-10---8-7-5-----|
-------------------------------------|
-------------------------------------|
-------------------------------------|
-------------------------------------|
-------------------------------------|  AD LIB


We call the Cumbria to tumble

From the peak of the Himalayas

We send the funk into the jungle

To the last outpost of the bass player.




Hope you enjoy it!