Tag: keep

Just Keep Breathing chords – Automatic Loveletter

 "Just Keep Breathing" - Automatic Loveletter

Tuning: Half-Step Down

Chords:
Cadd9: 33023x
G (full): 330023
Em7: 33022x
D: 3320xx
Em: 00

**I prefer these certain chords for the verses over the normal C, G, D, and Em 
because it really doesn't sound right without the bottom strings and such. Enjoy :)
**If you have any questions, feel free to email me at temprixture

          Cadd9 G 
The door slams, I wake up
  Em7 D                   
Another illusion I have made of this

 Cadd9 G Em7 D 
        I cry I swept away every tear that I've cried
       Cadd9 G 
And I swear this was your choice
    Em7 D 
So save me from falling with the sound of your voice

 Cadd9 G 
 Are you lonely? Do you hold back?
          Em7 D 
Will the road ahead keep you on track?
 Cadd9 G  
 I know you made what real for
             Em7 D 
But I can't help to die just a little bit more

 Em Cadd9 G 
I'll miss your every moment
 D 
I can't hold it
       Em 
And I swear
      Cadd9 G D 
I'll miss your perfect charming selfishness
   Em Cadd9 G D Cadd9 
I can't    say     goodbye , say goodbye

Cadd9, G, Em7, D

         Cadd9 G 
So here goes    my last chance
       Em7 D 
I'm a hopeless romantic and I don't understand
         Cadd9 G 
Why you don't, why you wanna show
     Em7 D Cadd9 G 
Your dangerously   into me and it's tragic so pathetic
       Em7 D 
I'm in love with you and you just don't get it

     Cadd9 G Em7            
So, when you lay your head at night do you think of me?
        D Cadd9 G 
Do you think it's right to leave me here to kick myself
    Em7 D 
To hate myself for all that I felt?

 Em Cadd9 G 
I'll miss your every moment
 D 
I can't hold it
       Em 
And I swear
      Cadd9 G D 
I'll miss your perfect charming selfishness
   Em Cadd9 G D Cadd9 
I can't    say     goodbye , say goodbye

Cadd9, G, Em7, D

 Cadd9 G 
 So I sit here finding a way
     Em7 D 
Surrounded but still lonely
      Cadd9 G Em7 D 
Your absence here doesn't help ,   it doesn't help
       Cadd9 G 
Cause every time I look to you
        Em7 D 
A mild depression comes screaming through
 Cadd9 G Em7 D 
I don't know myself,   we don't know ourselves

    Cadd9 G         (pause)
So make me this promise, yeah?
 Em7 D 
Say it with an object of
 Cadd9 G 
Emotion feeling, can't stop spinning
 Em7 D 
Just keep breathing, say you need me

 Em Cadd9 G 
I'll miss your every moment
 D 
I can't hold it
       Em 
And I swear
      Cadd9 G D 
I'll miss your perfect charming selfishness
   Em Cadd9 G D 
I can't watch you go
           G 
Why'd you go?

Keep On Looking Tabs by Sharon Jones And The Dap-Kings

 -------------------------------------------------------------------------------
               KEEP ON LOOKING - SHARON JONES & THE DAP-KINGS
-------------------------------------------------------------------------------
: Ignacio Mendez-Nunez
 ignacio.mendeznunez

Tuning: Standard


e|-/12-12-12\10-10-10-10/12-------/17--15-15-----15-15\12-12--10--10/14------|
B|---------------------------------------------------------------------------|
G|-/14-14-14\12-12-12-12\14-------/19--17-17-----17-17\14-14--12--12/14------|
D|---------------------------------------------------------------------------|
A|---------------------------------------------------------------------------|
E|---------------------------------------------------------------------------|

e|-12\10/12--10--7--3---0----------------------------------------------------|
B|---------------------------------------------------------------------------|
G|-14\12/14--12--9--5---2----------------------------------------------------|
D|---------------------------------------------------------------------------|
A|---------------------------------------------------------------------------|
E|---------------------------------------------------------------------------|

Verse Guitar 1
e|---5-----5-----5-----5----5-----5-----5------------------------------------|
B|---5-----5-----5-----5----5-----5-----5------------------------------------|
G|---5-----5-----5-----5----5-----5-----5------------------------------------|
D|---------------------------------------------------------------------------|
A|---------------------------------------------------------------------------|
E|---------------------------------------------------------------------------|
Verse Guitar 2 (on Guitar 1's off beats)
e|---------------------------------------------------------------------------|
B|--------------------------------------7---7--------------------------------|
G|-5--55-----7-7--5--5----7-------------7h9-7--7---7----7--------------------|
D|-5--55-----7-7--5--5----7-----5--5-----------7h9-7----7--------------------|
A|-7--77---7/9----7--7--7/9-----7--7-----------7-----9-----------------------|
E|---------------------------------------------------------------------------|

@0:48
Bridge
  Dm       x8 then back to previous part
e|-55x5----------------------------------------------------------------------|
B|-66x6----------------------------------------------------------------------|
G|-77x7----------------------------------------------------------------------|
D|---------------------------------------------------------------------------|
A|---------------------------------------------------------------------------|
E|---------------------------------------------------------------------------|

 @1:10       with palm mute and lots of wah
   Am   repeat until    D
e|-55x5---------------55x-5--------------------------------------------------|
B|-66x6---------------77x-7--------------------------------------------------|
G|-77x7---------------77x-7--------------------------------------------------|
D|---------------------------------------------------------------------------|
A|---------------------------------------------------------------------------|
E|---------------------------------------------------------------------------|

Then continues with previous parts (Verse, Bridge etc...)

************************************

| /   slide up
| \   slide down
| h   hammer-on
| p   pull-off
| ~   vibrato
| +   harmonic
| x   Mute note
| b   Bend

************************************

The Stars Keep On Calling My Name solo Tabs – Mac Demarco

 This is the solo at the end of the album version song:

From 1:45 to the end (2:23)

Note: the solo in the live version is 100% different, so make sure you listen the album/studio version.

Tuning: Standard (EADGBe)

e -----------------------
B --/15-15-15-15----15---
G -----------------------
D -----------------------
A -----------------------
E -----------------------

e ------------------15---
B --/15-15-15-15---------
G -----------------------
D -----------------------
A -----------------------
E -----------------------

e ------------------------------------
B --/15-15-15-15p12-------------------
G ------------------14p12-14-14p12-14-
D ------------------------------------
A ------------------------------------
E ------------------------------------

e ------------------17---
B --/15-15-15-15---------
G -----------------------
D -----------------------
A -----------------------
E -----------------------

e ------------------15---
B --/15-15-15-15---------
G -----------------------
D -----------------------
A -----------------------
E -----------------------

e ----------------------------
B --/15-15-15-15----15p12-----
G ------------------------14--
D ----------------------------
A ----------------------------
E ----------------------------

e -----------------------
B --/15-15-15-15----15---
G -----------------------
D -----------------------
A -----------------------
E -----------------------

e ------------------15---
B --/15-15-15-15---------
G -----------------------
D -----------------------
A -----------------------
E -----------------------

e ----------------19-17b19b17-15-15-17---
B --/15-15-15-15-------------------------
G ---------------------------------------
D ---------------------------------------
A ---------------------------------------
E ---------------------------------------

                                  (wait)
e ---------------------------------------------------------------------------------------------------
B --/15-15-15-15----15p12-15-15-------------12-------------------------------------------------------
G ----------------------------------------------14-14-----14b16b14-14-12-14---14b16b14-14-12-12------
D ---------------------------------------------------------------------------------------------------
A ---------------------------------------------------------------------------------------------------
E ---------------------------------------------------------------------------------------------------

e ----------------------
B ----------------------
G --14b16b14-14-12-12---
D ----------------------
A ----------------------
E ----------------------


Notation:
"/15" means slide from anywhere.
"14b16b14" means bend "14" until it sounds like "16" and from there bend it back so it sounds again like "14"

You Keep Me Hanging On chords – Kim Wilde V3

 ==============
Capo: 3rd fret
==============

Intro:
|  Em  |  Em  |
|  Em  |  D   |  Bm  |  C  |
|  Em  |  D   |  Bm  |  C  |
        (...keep me hanging on...)

Chorus:
 Em D 
Set me free, why don't you babe?
 Bm C 
Get out my life, why don't you babe?
 Em D 
'Cause you don't really love me
          Bm C 
You just keep me hanging on

Rhythmic fill: |  Em  |  D  |  Bm  |  C  |

 Em D 
Set me free, why don't you babe?
 Bm C 
Get out my life, why don't you babe?
 Em D 
'Cause you don't really need me
         Bm C 
But you keep me hanging on

Verse:
 G 
Why do you keep a-comin' around
 C G 
Playing with my heart?
 G 
Why don't you get out of my life
      C G 
And let me make a brand new start?
 D 
Let me get over you
     B7 
The way you've gotten over me, yeah

Chorus:
 Em D 
Set me free, why don't you babe?
 Bm C 
Get out my life, why don't you babe?
 Em D 
'Cause you don't really love me
          Bm C 
You just keep me hanging on
 Em D 
No you don't really need me
          Bm C 
You just keep me... hanging on

Verse:
 G 
You say although we broke up
 C G 
We still just wanna be friends
 G 
But how can we still be friends when
 C Em D C A 
Seeing you only breaks my heart agaaaaaaaaaaain...
                                        (and there ain't nothing I can do about it...)
Bridge:
 D Em D    
Wow-wow-wow...
 D Bm C 
Wow-wow-wow-wow...
 C Em D 
Wow-wow-wow-wow...
 D Bm C 
Wow-wow-wow...        yeah....

 Em D 
Get out, get out of my life
 Bm C 
And let me sleep at night
 Em D 
'Cause you don't really love me
          Bm C 
You just keep me... (hanging) hanging on

Verse:
 G 
You say you still care for me
          C G 
But your heart and soul needs to be free
 G 
And now that you've got your freedom
     C G 
You wanna still hold on to me
 D 
You don't want me for yourself
    B7 
So let me find somebody else

Chorus:
 Em D 
Set me free, why don't you babe?
 Bm C 
Get out my life, why don't you babe?
 Em D 
'Cause you don't really love me
          Bm C 
You just keep me hanging on

 Em D 
Why don't you be a man about it
 Bm C 
Set me free
 Em D 
Now you don't care a thing about me
 Bm C 
You're just using me (hey, abusing me)

 Em D 
Get out, get out of my life
 Bm C 
And let me sleep at night
 Em D 
'Cause you don't really love me
          Bm C 
You just keep me... hanging on

Outro: repeat
 |  Em  |  D  |  Bm  |  C  |
to fade

Keep Me Hanging On chords – Kim Wilde V2

 ==============
Capo: 3rd fret
==============

Intro:
|  Em  |  Em  |
|  Em  |  D   |  Bm  |  C  |
|  Em  |  D   |  Bm  |  C  |
        (...keep me hanging on...)

Chorus:
 Em D 
Set me free, why don't you babe?
 Bm C 
Get out my life, why don't you babe?
 Em D 
'Cause you don't really love me
          Bm C 
You just keep me hanging on

Rhythmic fill: |  Em  |  D  |  Bm  |  C  |

 Em D 
Set me free, why don't you babe?
 Bm C 
Get out my life, why don't you babe?
 Em D 
'Cause you don't really need me
         Bm C 
But you keep me hanging on

Verse:
 G 
Why do you keep a-comin' around
 C G 
Playing with my heart?
 G 
Why don't you get out of my life
      C G 
And let me make a brand new start?
 D 
Let me get over you
     B7 
The way you've gotten over me, yeah

Chorus:
 Em D 
Set me free, why don't you babe?
 Bm C 
Get out my life, why don't you babe?
 Em D 
'Cause you don't really love me
          Bm C 
You just keep me hanging on
 Em D 
No you don't really need me
          Bm C 
You just keep me... hanging on

Verse:
 G 
You say although we broke up
 C G 
We still just wanna be friends
 G 
But how can we still be friends when
 C Em D C A 
Seeing you only breaks my heart agaaaaaaaaaaain...
                                        (and there ain't nothing I can do about it...)
Bridge:
 D Em D    
Wow-wow-wow...
 D Bm C 
Wow-wow-wow-wow...
 C Em D 
Wow-wow-wow-wow...
 D Bm C 
Wow-wow-wow...        yeah....

 Em D 
Get out, get out of my life
 Bm C 
And let me sleep at night
 Em D 
'Cause you don't really love me
          Bm C 
You just keep me... (hanging) hanging on

Verse:
 G 
You say you still care for me
          C G 
But your heart and soul needs to be free
 G 
And now that you've got your freedom
     C G 
You wanna still hold on to me
 D 
You don't want me for yourself
    B7 
So let me find somebody else

Chorus:
 Em D 
Set me free, why don't you babe?
 Bm C 
Get out my life, why don't you babe?
 Em D 
'Cause you don't really love me
          Bm C 
You just keep me hanging on

 Em D 
Why don't you be a man about it
 Bm C 
Set me free
 Em D 
Now you don't care a thing about me
 Bm C 
You're just using me (hey, abusing me)

 Em D 
Get out, get out of my life
 Bm C 
And let me sleep at night
 Em D 
'Cause you don't really love me
          Bm C 
You just keep me... hanging on

Outro: repeat
 |  Em  |  D  |  Bm  |  C  |
to fade

Danger Keep Away chords – Slipknot

 CHORDS:  Dm  F  G   (THROUGHOUT THE WHOLE SONG)

We too feel alone

 Dm F G Dm 
That place in my mind
 Dm F G Dm 
Is that space that you call mine
 Dm F G Dm 
That place in my mind
 Dm F G Dm 
Is that space that you call mine

 Dm F G Dm 
Where have I been all this time?
 Dm F G Dm 
Lost enslaved fatal decline
 Dm F G Dm 
I've been waiting for this to unfold (Good)
 Dm F G Dm 
The pieces are only as good as the whole

 Dm F G Dm 
Severed myself from my whole life
 Dm F G Dm 
Cut out the only thing that was right
 Dm F G Dm 
What If I never saw you again
 Dm F G Dm 
I'd die right next to you in the end

 Dm F G Dm 
That place in my mind
 Dm F G Dm 
Is that space that you call mine
 Dm F G Dm 
That place in my mind
 Dm F G Dm 
Is that space that you call mine

 Dm F G Dm 
I won't let you walk away
 Dm F G Dm 
Without hearing what I have to say
 Dm F G Dm 
Without hearing what I have to say
 Dm F G Dm 
Without hearing what I have to say

Keep On Chooglin chords – Andrew Jackson Jihad

 Intro: ( G )  Bm  X2

 Bm Am G Bm 
This songwriting process is modeled after Brian Wilson
 Bm Am G Bm 
Shuffle year round in sweatpants mumbling
 C Bm Am G D 
So much would go wrong when he tried to make his songs 
 Bm A G Bm 
And I'm not that big of a fan of Brian Wilson
 Bm A G Bm 
My favorite Beach Boys songs are written by Charles Manson
  C Bm A G D 
"Wild Honey Pie", "Why Don't We Do It In The Road"...No wait, I think that was The Beatles!
 Bm C Bm 
Every day I try to do the things that feel alright
 Bm C Am 
It don't matter what, I feel like a bastard deep inside
 C Bm Am G 
French corner to the bullshit, cut your losses and play bass
               D 
And listen to CCR
 C Bm  
And keep on chooglin, Keep on keepin' on,
 G Bm Em 
Don't be afraid to speak in your native tongue
     Am D 
The grandson of a ghost is singing need to tell a song
            Bm D Em 
And all my dead friends in my corner now are cheering me along
    C D 
If it's inside your head, don't let them tell you that you're wrong
         Bm D Em 
Because giving a shit has left the building...

( B )  A G C B Am  

End on  G 

Note: chords in brackets are played very quickly and I'm not sure if they're right.

Keep On chords – Tyler Hilton V2

 Key E (original key without capo is F#)

Capo 2nd fret


Verse 1
             E A E 
Everybody knows, 
                           E A E 
or has a story bout the first one
                         A C#m 
Who taught them how to hurt, 
                        E A E 
and led their hopes astray

                        C#m F# 
When its gone on quite enough and your sick of staying down
                 A                                           
I know what you need, but you gotta live it like it sounds


Chorus
                        E A          
When you lose what you love, live on live on
                        E A         
When the road gets too rough, be strong, be strong
                C#m F#      
What you can’t understand, but you’re starting to see
                   A                             
it’ll work in the end, you just got to believe
                      E A     
And keep on, keep on
                   E A 
Keep on, keep on


Verse 2
             E A E 
I had my ideals, 
                       E A E 
my plans so cut and dry
                         A C#m 
I wouldn't settle for a thing
                               E A E 
And you can forget all compromise

                        C#m F# 
But I was tackled like a wave, stormed on like the ground
                       A 
What once would never change, was slowly turning 'round


Chorus
                        E A          
When you lose what you love, live on live on
                        E A         
When the road gets too rough, be strong, be strong
                C#m F#      
What you can’t understand, but you’re starting to see
                   A                             
it’ll work in the end, you just got to believe
                      E A     
And keep on, keep on
                   E A 
Keep on, keep on

                        C#m F# 
You can take it from me, there's so much you can be
                    A 
And it's all gonna change, whether it's you or them or me


Instrumental

|:   E   |   A   :|


Chorus
                        E A          
When you lose what you love, live on live on
                        E A         
When the road gets too rough, just be strong, be strong
                C#m F#      
And when you can’t understand, but you’re starting to see
                   A                             
it’ll work in the end, you just got to believe
                      E A     
And keep on, keep on (keep on, keep on)
                   E A 
Keep on, keep on (keep on, keep on)
                E 
Keep on, keep on

Keep Your Heart Right chords – Terry Callier

 Intro ...

Same melody as verses.

The Em9 is


E ||-------o------------|
B ||----3---3-------3---|
G ||---o-------o---o--o-|
D ||--4-----------4-----|
A ||--------------------|
E ||o-------------------|




 Em9 
Do do do dee do do, do dah di do.
 Em9 
Do do do dee do do, do di dah
 Em9 
Do do do dee do do, do dah di do.
 Em9 Bm7 
Do do do dee do do, do de do de dah.
da dah da dah.
                 Bm Am7 
De da de dah
                     Bm Am7 
Do de do de dah.
                     Bm Am7 Bm7 
Do do de de dah, de de dah, de de dah-ah


Verse One ...

 Em9 
Can you feel the way the world is turning,
 Em9 
Will we live to love another day,
 Em9 
Is the lesson too late for the learning,
 Em9 Bm7 Am7 
And do our emotions just get in the way,
                         Bm7 Am7 
Oh what d' you say,
                       Bm7 Am7 
If the truth appears,
              Bm7 Am7 Bm7 
Will you turn away, turn away, turn away


Chorus ...

       Em9 
In brightest day or darkest night
         Am7 
Don’t give up the faith and keep your heart right,
               Em9 
Like a mountain stand for eternity,
              Am7 
Oh your light will shine for the world to see
                  Bm7 Am7 
Keep your heart right,
                  Bm7 Am7 
Keep your heart right,


Verse Two ...

In a weary world that needs redemption,
Maybe we can learn to love again,
And this time there will be no exemptions,
Only better days ahead for us my friend
And it's time to begin,
And if the thoughts are true woo-oo-ooh,
The song never ends, never ends, never ends,


Repeat Chorus ...


Solo ...

 Bm7 Am7    x many


                   Bm7 Am7 
Keep your heart right,
                   Bm7 Am7 
Keep your heart right,


More soloing with the same chords and backing vocals singing the main refrain.

Keep Smiling Tabs by Bombay Bicycle Club

 Song originally wrote by Jack Steadman.
I might be wrong on some parts so don't be afraid to
leave a comment. I also need the lyrics because I can't
exactly transcribe them. So if you also have those please
comment.I hope some of this helps.
It's all here just make sure were all of the parts go and such.

Intro/Verses:
E--------------------------------|
B--------------------------------|
G---6-----6-----6--------6----6--|
D---4-----4-----4--------4----4--|
A-------7----7-------------------|
E-5---5-------5---5---7----0-----|

Chorus:
E-----------------------|
B-----------------------|
G-10---10---11---6---1--|
D-10---10---11---6---2--| X2
A-8----8-----9---4---2--|
E-----------------------|

Solo: can be heard slightly but you'll get what I mean.

E------------------------------------------|
B-12--12----12-12-12-10-9------7-9---7-9-5-|
G------------------------------------------|
D------------------------------------------|
A------------------------------------------|
E------------------------------------------|

Guitar heard after second chorus while the lead is playing:
E----------------------------------------------------------------|
B-0-0-0-0-0-0-0-0-0-0-0-5-5-5-5-2-2-2-2-2-2-2-2-2-2-2-2-2-2-2-2--| X2
G----------------------------------------------------------------|
D----------------------------------------------------------------|
A----------------------------------------------------------------|
E----------------------------------------------------------------|

E------I     I------I    ------I    -------I    ----------|I
B-0----I     I--5---I    --2---I    --5----I    -9--------|I
G------I X12 I------I x4 ------I x8 -------I X4 -------I--| X4
D------I     I------I    ------I    -------I    ----------|I
A------I     I------I    ------I    -------I    ----------|I
E------I     I------I    ------I    -------I    ----------|I

And so on.

Keep It Healthy intro Tabs by Warpaint

 -------------------------------------------------------------------------------
                             KEEP IT HEALTHY (Intro) - Warpaint
-------------------------------------------------------------------------------
: Alex

Tuning:

E|----------------------------------------------------------------------------|
B|--------3--------------------------------------0--------0--------0--------3-|
G|-----4-----------4--------------------0-----0--------0--------0--------4----|
D|--4-----------4--------0-----0-----0-----2--------0--------4--------5-------|
A|-----------5--------4-----0-----2-------------------------------------------|
E|----------------------------------------------------------------------------|

E|-----------------------------------------------------|
B|--------3--------------------0--------0--------------|
G|-----0--------0-----0-----0--------0--------0--------|
D|--4--------0-----2-----4--------2--------0--------0--|
A|-----------------------------------------------4-----|
E|-----------------------------------------------------|

Repeat

Keep A-lovin Me chords – Everly Brothers

 Keep A-Lovin' Me:Everly Brothers.
Recorded on COLUMBIA in 1956.
(More Country than Rock. I believe
 it was their first.)

INTRO:  F# Db F# Ebm 

#1.
 F# Db Ebm F# 
Your heart was broken before, but that can 
    Db F# Ebm 
be all in the past.
 F# Db F# B F# 
If you'd just give me a chance, here's the 
           B Abm Db 
secret to make our love last.

CHORUS:
 F# 
Keep a-lovin' me..keep a-lovin' me..keep 
                 Db F#   
a-lovin' me the way I love you.

#2.
 Db Ab F# Db F# Abm 
Pay no mind to those who disagree, cause when 
 Ab Eb Db Eb 
you give you're bound to receive.
 F# Db F# Db 
Don't let what happened before, make us like 
     F# 
the others that lose.
       Db F# B F# Db 
Trust me, believe in my plan, and the secrets, 
   B Ab Db 
I know, time can prove.

CHORUS:
 F# 
Keep a-lovin' me..keep a-lovin' me..keep 
                 Db F#   
a-lovin' me the way I love you.


INTERLUDE:  F# B F# Db Ebm Db Eb 

#3.
 Db Ab F# Db F# Abm 
Pay no mind to those who disagree, cause when 
 Ab Eb Db Eb 
you give you're bound to receive.
 F# Db F# Db 
Don't let what happened before, make us like 
     F# 
the others that lose.
       Db F# B F# Db 
Trust me, believe in my plan, and the secrets, 
   B Ab Db 
I know, time can prove.

OUTRO:
 F# 
Keep a-lovin' me..keep a-lovin' me..keep 
                 Db F#   
a-lovin' me the way I love you.


A fifties smash from Kraziekhat.


How Can Keep Singing chords – Praise And Worship

 Verse 1
             G D/F#                            
There is an endless song echoes in my soul
   Em7 C 
I hear the music ring 
     D G D/F# 
And though the storms may come I am holding on
 Em7 G C 
to the rock I cling     

Chorus:
 G D 
How can I keep from singing Your praise
            C G/B C D   
How can I ever say enough, how amazing is Your love
 G D 
How can I keep from shouting Your Name
              C G/B C D G   
I know I am loved by the King, and it makes my heart want to sing

Verse 2:

        G D/F# 
I will lift my eyes in the darkest night
       Em7 C 
For I know my Saviour lives
      D G D/F# 
And I will walk with You knowing You’ll see me through 
     Em7 G C 
And sing the songs You give 

Chorus:
 G D 
How can I keep from singing Your praise
            C G/B C D   
How can I ever say enough, how amazing is Your love
 G D 
How can I keep from shouting Your Name
              C G/B C D G   
I know I am loved by the King, and it makes my heart want to sing

Bridge:
        Am7 G/B C D 
I can sing in the troubled times sing when I win
        Am7 G/B C D 
I can sing when I lose my step and fall down again
        Am7 G/B C D  
I can sing cause You pick me up sing cause You’re there
        Am7 G/B C D 
I can sing cause You hear me Lord when I call to You in prayer
       Am7 G/B C D 
I can sing with my last breath sing for I know
       Am7 G/B C D 
That I’ll sing with the angels and the saints around the throne

Chorus:
 G D 
How can I keep from singing Your praise
            C G/B C D   
How can I ever say enough, how amazing is Your love
 G D 
How can I keep from shouting Your Name
              C G/B C D G   
I know I am loved by the King, and it makes my heart want to sing
       C G/B C D G   
I am loved by the King, and it makes my heart want to sing
       C G/B C D G   
I am loved by the King, and it makes my heart want to sing

 G C G D

Keep In The Dark chords – Temples V2

 Temples - Keep In The Dark

 E 
Keep in the dark to stay out of the light
Keep in the dark to stay out of the light
Keep in the dark to stay out of the light
Just stay in the sunshine

 E 
Laaaala la la

 C B  2x
 G Am E E 
Turn off your light, let's step into the dark
Sleep away the light that shines from here into her
 E                                                    
Save your face and keep your hands firmly pressed into the
 G A E 
Eeeeearth

 E 
I feel relief when nighttime eventually comes
Talk of all the dreams, you surely had one
Mind your head and keep your hands firmly pressed into the earth
 G B 
Earth

              C Am C 
Dream on and sleep won't save you from the night
          Am E 
Drink up darling, dressed in white
                 A E 
A shameful display, sewn in velvet and lace
                   B 
To keep in the dark

              C Am C 
Dream on and sleep won't save you from the night
          Am E 
Drink up darling, dressed in white
               A C 
I come with a string to recover the world
                   B E 
that sings in the night and never grows old

Solo (in  E ) 2x
e|----------------|          e|----------------|
B|----------------|          B|----------------|
G|----------------|          G|----------------| 
D|-----0-2--------| 2x, then D|----------------| 2x
A|-2-4------------|          A|----------------|
E|---------0--0---|          E|-0-3--0-2--0--0-|

 E 
The night falling saves the grace with wondering eyes
Drawn to a beauty left to leer in the light
Climb the stairs and keep your only precious white wine full 
    G A E 
of worth

 E 
Resting hair of head, it's safe from the dark 
Dressed in a body left a stranger to her
Flashing words, attempt to call an all-showing girl your true worth
 G B 
worth

              C Am C 
Dream on and sleep won't save you from the night
          Am E 
Drink up darling, dressed in white
                 A E 
A shameful display, sewn in velvet and lace
                 B 
To keep in the dark

              C Am C 
Dream on and sleep won't save you from the night
          Am E 
Drink up darling, dressed in white
               A C 
I come with a string to recover the world
                   B E 
that sings in the night and never grows old

End in  E

Keep The Customer Satisfied chords – Simon And Garfunkel V5

 Tune down half a step to play. Chords in relation to tuning.

verse1
N.C                              E 
Gee but it's great to be back home 
Home is where I want to be 
                             A  
I've been on the road so long my friend
And if you came along 
    E F#m A 
I know you couldn't disagree 
               E 
It's the same old story, yeah 

                A 
Everywhere I go
           E  
I get slandered
    B7  
Libeled
          E 
I hear words I never heard 
          A 
In the Bible


 E C#m 
And I'm one step ahead of the shoe shine
 E C#m  
Two steps away from the county line
 E E7 A E  
Just trying to keep my customers satisfied, Satisfied


verse 2
                         E 
Deputy Sheriff said to me 
Tell me what you come here for, boy 
                              A 
You better get your bags and flee
You're in trouble boy, 
 E F#m A 
And now you're heading into more
               E 
It's the same old story 

               A 
Everywhere I go
           E  
I get slandered
    B7  
Libeled
          E 
I hear words I never heard 
          A 
In the Bible


 E C#m 
And I'm one step ahead of the shoe shine
 E C#m  
Two steps away from the county line
 E E7 A E  
Just trying to keep my customers satisfied, Satisfied

 
 E A     
Whoa whoa whoa whoa whoa 
 E F#m A 
(play over trumpets) 
                 E 
But it's the same old story 

               A 
Everywhere I go
           E  
I get slandered
    B7  
Libeled
          E 
I hear words I never heard 
          A 
In the Bible


 E C#m 
And I'm one step ahead of the shoe shine
 E C#m  
Two steps away from the county line
 E E7 A E  
Just trying to keep my customers satisfied, Satisfied

I Cant Keep You In My Mind chords – La Sera

 Don't forget to rate the tab! 
You can listen the song here: http://www.youtube.com/watch?v=R34EmjmX8oE 

 A F#m            
I know you must feel lost these days, 
 A F#m 
broken lovers tend to go their ways.
 A F#m C#m D 
Haunting ghosts that I can not evade until I turn grey.

 A F#m             
Closed my eyes and all I saw was you, 
 A F#m   
Distant memories that all seem new. 
 A F#m C#m D 
Watching slowly as I come unglued, I will not pursue

     E D              
Oh I know that I might see you someday and it'll come right back 
 E D 
I know that i might see you someday. I can't believe that...

 A C#m C# D          
I can't keep you in mind, 
 A C#m C# D          
I can't keep you in mind

 A F#m C#m D     
Try and reside, I can't hide, I can't hide.
 A C#m C# D   
I cant keep you in my mind

 A C#m C# D A C#m C# D A F#m            
Looking back on all the time I've spent, 
 A F#m            
I close my eyes so I can live again.
 A F#m C#m D 
In a prison that is made of sin, I will keep you in.

     E D              
Oh I know I might see you someday and it'll come right back
 E D 
I know I might see you someday. I can't believe that...

 A C#m C# D          
I can't keep you in my mind, 
 A C#m C# D  
I can't keep you in my mind

 A F#m C#m D     
Try and reside, I can't hide, I can't hide.
 A C#m C# D  
I can't keep you in my mind
 A C#m C# D  
I can't keep you in my mind
 A C#m C# D  
I can't keep you in my mind

Keep Making Me chords – Sidewalk Prophets V3

 INTRO:
 F#  / / / |  B  / / / :||

VERSE 1:
         F# 
Make me broken so I can be healed
                D#m  
‘Cause I’m so calloused and now I can’t feel
           C# B 
I want to run to You with heart wide open
         F#  / / / |  B  / / / |
Make me broken 

VERSE 2:
         F# 
Make me empty so I can be filled
                  D#m 
‘Cause I’m still holding onto my will
          C# B 
And I’m completed when you are with me
         F# 
Make me empty

CHORUS:
          D#m B F# C# 
‘Til You are my one desi- re
          D#m B F# C# 
‘Til You are my one true love
          D#m B F# C# 
‘Til You are my breath, my everything
 B                           
Lord, please keep making 
    F#  / / / (To VERSE 3)
1. me
   D#m / / / (To INSTRUMENTAL)
2. me 
3. To END 

VERSE 3:
         F#       
Make me lonely so I can be Yours
             Ebm  
‘Til I want no one more than You, Lord
               C# B 
‘Cause in the darkness I know You will hold me
          F# 
 Make me lonely   

CHORUS

INSTRUMENTAL:
 D#m  / / / |  C#  / / / |  B  / / / |  G#m  / / / |

CHORUS
  
END:
   D#m C# 
I know you keep making
 B  / / / | / / |
Lord please keep making
 F#  / / / |  B  / / / |F# / / / |  B  / / / |  F#  / / / |
me

I Cant Keep From Talking Tabs by Golden Smog

 -------------------------------------------------------------------------------
                    I CAN’T KEEP FROM TALKING - Golden Smog
-------------------------------------------------------------------------------
: jvwald

Tuning: Standard

intro x2
e|-------0---------------------0--------------------------0-----------------------2-3-2-|
B|-------0---------------------0--------------------------0-----------------------3-3-3-|
G|-------0-----------4-2-------0------------4-2-0-0-------0-----------4-2---------2-2-2-|
D|-----0-2-2-0-0h2---2-4-----0-2--2-0-0h2---2-4-2-2/4\2p0-2-0h2-0h2---2-4-3-2-0---0-0-0-|
A|-0h2---2---------2-----0h2---2----------2---------------2---------2-----------2-0-0-0-|
E|-------0---------------------0--------------------------0-----------------------------|

A                  G              D  
Hey ain't it great for us to be alive
A                        G                  D
I've been lying in wait for you to come outside
Em                           A                  D
I know you don't know me but I know a lot about you
Em                          A             D       Fm
You're the one who knows me better than I do

intro

A                         G                      D  
When I get back home, I'm gonna put your records on
A                        G              D  
I play them way too loud and I'll sing along
Em                   A        D
I know all the words to every song
Em                        A                  D       Fm
And I don't really care tonight you sang one wrong

intro (over lyrics)
And I, I can't keep from talking
I can't keep from talking about you
intro (over lyrics)
And I just wanted to thank you
Thank you for doing what you do

Fm                   G       D
I wanted to tell the world a little bit about myself
Fm         G            D
Realize my feelings and put them on a shelf
Em                          A                         D
Then jump out the window so you'd all know what it's about
Em                         A                  D       Fm
'Cause I can't be there to help you figure it out

intro (over lyrics)
And I, I can't keep from talking
I can't keep from talking about you
intro (over lyrics)
And I just wanted to thank you
Thank you for doing what you do


************************************

| /   slide up
| \   slide down
| h   hammer-on
| p   pull-off
| ~   vibrato
| +   harmonic
| x   Mute note
| b   Bend
| pb  Pre-bend
| br  Bend release
| pbr Pre-bend release
| brb Bend release bend

************************************

I Keep Forgettin chords – Chuck Jackson

 I Keep Forgettin':Chuck Jackson.
#55 on BB Hot 100 on WAND Records
in 1962.

INTRO:  F#m 

CHORUS:
 Db F#m 
I keep forgetting you don't love me no more.
 F# Dbm 
I keep forgetting you don't want me no more.
        F#m 
I keep forgetting that you told me that you didn't
                    A 
want me around, anymore.

#2.
 D E D Dbm 
But these stupid old feet just head for your street..
              D F# F#m 
like they've done so many times before.
         D F#m D Dbm        
And the stubborn old fists on the end of my wrists,
       D Db F#m    
start knocking on your front door.

CHORUS:
 Db F#m 
I keep forgetting you don't love me no more.
 F# Db 
I keep forgetting you don't want me no more.
        F# F#m 
I keep forgetting about those heartbreaking nights,
                                         A 
and those heartbreaking things that you said.

#3.
 D G D F#m    
Though I know in my heart, we've drifted apart, still I 
 D Db F#m 
can't believe our love is dead.
             D Dbm D E 
Though it's plain as can be, that you're finished with me,
   Db D F#m 
I just can't get it through my head.

CHORUS:
 D F#m 
I keep forgetting you don't love me no more.
        F# Db 
I keep forgetting you don't love me no more.
 A D F#         
I keep forgetting you don't love me no more.


INTERLUDE:  F# F#m Db F# F#m A ..


#4.
 D E D G D 
Though I know in my heart, We've drifted apart, still, I can't 
             Db F# 
believe our love is dead.
             D Dbm D E 
Though it's plain as can be, that you're finished with me,
   Db D F#m 
I just can't get it through my head.

OUTRO:
 D F#m 
I keep forgetting you don't love me no more.
        F#m                               
I keep forgetting you don't love me no more.
 F#m F# 
No, no, no, no, no, no, no, no more..but I just keep on forgetting..
           F#m 
I keep on forgetting, darling..


A sixties smash from Kraziekhat.

Let All Mortal Flesh Keep Silence chords – Public Domain

 LET ALL MORTAL FLESH KEEP SILENCE
Real Key (F)

Guitar: Capo 5

 Am G Am Gm F Esus E 
Let all mortal flesh keep silence, And with fear and trembling stand;
 F Am G Am Gm F Esus E 
Ponder nothing earthly minded, For with blessing in His hand,
 A Dm Am G F Dm G Am 
Christ our God to earth descendeth, Our full homage to demand.

 Am G Am Gm F Esus E 
King of kings, yet born of Mary, As of old on earth He stood,
 F Am G Am Gm F Esus E 
Lord of lords, in human vesture, In the body and the blood;
 A Dm Am G F Dm G Am 
He will give to all the faithful His own self for heavenly food.

 Am G Am Gm F Esus E 
Rank on rank the host of heaven Spreads its vanguard on the way,
 F Am G Am Gm F Esus E 
As the Light of light descendeth From the realms of endless day,
 A Dm Am G F Dm G Am 
That the powers of hell may vanish As the darkness clears away.

 Am G Am Gm F Esus E 
At His feet the six wingèd seraph, Cherubim with sleepless eye,
 F Am G Am Gm F Esus E 
Veil their faces to the presence, As with ceaseless voice they cry:
 A Dm Am G F Dm G Am 
Alleluia, Al  -  le - lu  -  ia,               Alleluia, Lord Most High!