Tag: keys

Superwoman chords – Alicia Keys V5

 Intro:  Am Ab +( Ab C E  with  Ab  base)  C/G Asus/F#  (2X) 
 F C (arpeggio) F C C G/B Am C/G 
  Everywhere I'm turning
 F C/E G/D G 
  Nothing seems complete
 C G/B Am C/G 
I stand up and I'm searching
 F C/E Dm G 
For the better part of me
 C G/B Am C/G 
I hang my head from sorrow
 F C/E Dm G 
state of humanity
 C G/B Am C/G 
I wear it on my shoulders
       F G C 
Gotta find the strength in me

 Am Ab +  C/G D/F# 
Cause I am a Superwoman
 F C 
Yes I am
 F G 
Yes she is
 Am      Ab+
Even when I'm a mess
                   C/G      
I still put on a vest
                  D/F# 
With an S on my chest
Oh yes
       F C F C 
I'm a Superwoman

 C G/B Am C/G 
For all the mothers fighting
 F C/E G/D G 
For better days to come
 C G/B Am C/G 
And all my women, all my women sitting here trying
 F C/E Dm G 
To come home before the sun
 C G/B          
And all my sisters
 Am C/G 
Coming together
     F C 
Say yes I will
 F G 
Yes I can

 Am Ab +  C/G D/F# 
Cause I am a Superwoman
 F C 
Yes I am
 F G 
Yes she is
 Am Ab + 
Even when I'm a mess
                   C/G  
I still put on a vest
                  D/F# 
With an S on my chest
Oh yes
       F C F C 
I'm a Superwoman
          F               
When I'm breaking down
      Fm 
And I can't be found
And I start to get weak
Cause no one knows
Me underneath these clothes
But I can fly
We can fly, Oh

 Am       Ab+  C/G D/F# 
Cause I am a Superwoman
 F C 
Yes I am
 F G 
Yes she is
Am     Ab+ 
Even when I'm a mess
                   C/G  
I still put on a vest
                  D/F# 
With an S on my chest
Oh yes
       F C 
I'm a Superwoman
 F G 
Yes She is
   
Oh Let me tell you 
 C G/B Am C/G 
I am a Super-woman oh 
 F C 
Yes I aaa---mmmm
 F G 
Yes she is(Oh ya)
(Tell him)
   Am Ab + 
Cuz Even when I'm a mess
                   C/G  
I still put on a vest
                  D/F# 
With an S on my chest
Oh yes
       F C 
I'm a Superwoman
 F C 
Yes I Am
           F C 
And I'm a Superwoman (That's Right)
         F C 
(Oh Ya) Yes You  Are
 Am Ab +    C/G D/F# 
Da da da    da   da
 Am Ab +    C/G D/F# 
Da    da    da   da
 Am Ab +    C/G D/F

Ring Of Keys chords – Fun Home

 E A 
Someone just came in the door.
 E A 
Like no one I ever saw before.
 E A 
I feel...
 E A 
I feel...

 E A 
I don't know where you came from.
 E A 
I wish I did I feel so dumb.
 Abm 
I feel...

     A E 
Your swagger and your bearing
         F#m Abm E 
and the just right clothes you're wearing
     A E 
Your short hair and your dungarees
          A 
And your lace up boots.

          G D 
And your keys oh
      G D 
Your ring of keys.

 E A 
I thought it was s'pposed to be wrong
 E A 
But you seem okay with being strong
 E A 
I want...to...
 E A 
You're so...

 E A 
It's probably conceited to say,
 E A 
But I think we're alike in a certain way
 Abm 
I...um...

     A E 
Your swagger and your bearing
         F#m Abm E 
and the just right clothes you're wearing
     A E 
Your short hair and your dungarees
          A 
And your lace up boots.

          G D 
And your keys oh
      G D 
Your ring of keys.

 E B E 
Do you feel my heart saying hi?
 E B 
In this whole luncheonette
 E B F#m E 
Why am I the only one who see you're beautiful?

N.C.
No, I mean

 F#m B 
Handsome!

 E A A E 
Your swagger and your bearing
         F#m Abm E 
and the just right clothes you're wearing
     A E 
Your short hair and your dungarees
          A 
And your lace up boots.

          G D 
And your keys oh
      G D 
Your ring of keys.

   E A 
I know you
   E A 
I know you
   E A 
I know you

 E

Do The Rump Tabs – Black Keys

 -------------------------------------------------------------------------------
                             Do The Rump - The Black Keys
-------------------------------------------------------------------------------
: Tom Ryan     
 Tom.Ryan.313

Tuning: Standard

e|---------------------------------------------------------------------------|
B|---------------3-----------5b6(6)------------3-------------3---------------|
G|---------------------------------------------------------------------------|
D|-----------3h4-------------5-------------3h4-----------3h4-----------------|
A|-5-5-3-5-5-------5-5-3-5-5-----5-5-3-5-5-------5-5-3-5---------------------|
E|---------------------------------------------------------------------------|

e|------------------x---x-x-x----3-------------------------------------------|
B|------------------x---x-x-x--6---6--(6)-------------------3----------------|
G|---5-5p4-2/4-(4)--x---x-x-x------------------------------------------------|
D|------------------x---x-x-x-------------3b4-----------3h4------------------|
A|-0----------------x---x-x-x-----------------5-5-3-5-5----------------------|
E|------------------x---x-x-x------------------------------------------------|

e|--------------------3-5-3---3--3-5-3---------3-----------------------------|
B|----------------------------------------6--6---6---------------------------|
G|---------5-4-2---2---------------------------------------------------------|
D|-----------------2----------------------------------x-x-5b6br5p3-----------|
A|-5-5-3-5-------0----------0-------------------------x-x--------------------|
E|-------------------------------------3------------3-x-x--------------------|

e|---------------------------------------------------------------------------|
B|---------------3-----------------------------------------------------------|
G|------------------------------5-7------------------------------------------|
D|-----------3h4------------5/7-------------5b6-3----------------------------|
A|-5-5-3-5-5-------5-5-3-5----------5-5-3-5-------5--------------------------|
E|---------------------------------------------------------------------------|

e|---------------------------------------------------------------------------|
B|-----------------------------------------8b9br8p6------------8b9br8p6------|
G|-------------5-7-5--------------------------------7-(7)---------------7----|
D|---------5/7-------7-5-3-5/7-3---------------------------------------------|
A|-5-5-3-5-----------------------5-5-5-3-5-------------5-5-3-5---------------|
E|---------------------------------------------------------------------------|

e|---------------------------------------------------------------------------|
B|----------8b9-6-8-8b9br8p6-----------------------5b6---------------3-------|
G|-(7)-----------------------7p5---------------------------------------------| 0:58
D|-------------------------------7/5p3-------------5-------------3h4---------|
A|--5-5-3-5----------------------------5-5-5-3-5-5-----5-5-3-5-5-------------|
E|---------------------------------------------------------------------------|

e|---------------------------------------------------------------x---x-x-x---|
B|------------5b6---------------3-------------3------------------x---x-x-x---|
G|------------------------------------------------5-5p4-2/4-(4)--x---x-x-x---|
D|------------5-------------3h4-----------3h4--------------------x---x-x-x---|
A|--5-5-3-5-5-----5-5-3-5-5-------5-5-3-5-------0----------------x---x-x-x---|
E|---------------------------------------------------------------x---x-x-x---|

e|---3----------------------------------------------3-5-3---3--3-5-3---------|
B|-6---6--(6)-------------------3--------------------------------------------|
G|----------------------------------------5-4-2---2--------------------------|
D|------------3b4-----------3h4-------------------2--------------------------|
A|----------------5-5-3-5-5-------5-5-3-5-------0----

In Our Prime Tabs – Black Keys

 Hi, so I couldn't find a good tab of this anywhere, which is surprising since its SUCH a good song.
Any ways, I'm only really not 100% on a couple of the chords, but everything else should be fine hopefully.

I also apologize for not being able to incorporate the timings as well as I could have!

Intro - Lead guitar  (while the piano is playing)

e:----------------------------------------6~--------------------------------6~---|
B:--7/9--7-------------9-----------11-----7~--------9----9-----------11-----7~---|
G:---------8--6------8---8------10----10--8~--------8-8----8------10----10--8~---|
D:---------------8/9-------9/11-----------8~--------9--------9/11-----------8~---|
A:-------------------------------------------------------------------------------|
E:-------------------------------------------------------------------------------|

First section of the song

The acoustic guitar plays the chords B major, C# major, and D# minor as below:

B                 C#          D#m

"Pour me down the drain, I disappear"

etc

and the lead guitar plays fills and picks the chords above, as follows (included the times if it helps):

Fill 1 (0:34)                                         Fill 2 (0:41)

e:--6h9p6--------------------|-------------------6--|-6-9-6----------|
B:--------7h9p7-----7--------|-------------11----7--|-------9-7--9-7-|
G:--------------6h8---8p6----|----------10-------8--|----------------|
D:------------------------9~-|---9/11------------8--|----------------|
A:---------------------------|----------------------|----------------|
E:---------------------------|----------------------|----------------|

Then for the rest of the first part of the song, the lead guitar will pick slightly varying patterns of 

e:-------------------------6~-|
B:------9-----------11-----7~-|
G:----8---8------10----10--8~-|
D:--9-------9/11-----------8~-|
A:----------------------------|
E:----------------------------|

While playing licks after the D# minor chord is played

Fill 3 (0:49)                  Fill 4 (0:54)             Fill 5 (1:03)       Fill 6 (1:08)

e:--6h9p6--------------------|------6--6--6-------------|-------------------|--6-----|
B:--------7h9p7-----7--------|----7----------7p6---6----|------7~--7h9p7----|----7---|
G:--------------6h8---8p6----|--8----------------8---8--|-----------------8-|------8-|
D:------------------------9~-|--------------------------|--6h8--------------|--------|
A:---------------------------|--------------------------|-------------------|--------|
E:---------------------------|--------------------------|-------------------|--------|


Second Part

Here I wasn't actually able to hear the lead guitar very well, but from what I did hear, it basically
sounded like the guitarist was just picking the chords that the acoustic guitar was playing, but in 
different patterns and variations. Either way, I apologize again.

A# minor is strummed for 2 bars i think, and then 

A#m                         G#m                              D#m 

"Every now and then, I see a face from way back when, and I explode"

A#m                             G#m                            F#                    A# / A#7

"Friends no longer aid me, only bullshit serenade me like it's gold, how that we're told" 

This part of the song transitions to the next with a strum of the D# minor chord.



Third Part

Again I apologize I couldn't hear the lead guitar too well, and so I didn't manage to tab it out

B major, C# major, and D# minor are played three times through, and then G# minor, A# minor, A# major and 
A# major 7 is played once through, then

B                 C#            D#m

"Like every lover hovers in my mind" 

etc; then

    G#m             A#m              A#m      /  A#7

"We had it all when we were in our prime"


Outro Solo (everything should be fine except for the note marked with *, not entirely sure if thats correct)

e:------------------------------------------------------------------------------------|

A Girl Like You Live Tabs – Black Keys

 -------------------------------------------------------------------------------
                             SONG NAME - Band Name
-------------------------------------------------------------------------------
: dzingariello
 dario.zingariello

Tuning: EADGBe

A Girl like you, originally by Edwyn Collins, as played by The Black Keys 
on a web exclusive of the Tonight Show with Jimmy Fallon.

https://www.youtube.com/watch?v=MowHQDsaSOI



Intro / Chorus
e|-------------------------------------------------------------------------------------|
B|-------------------------------------------------------------------------------------|
G|--------10-(11/12\11)----------------15-12----------10-(11/12\11)--------------------|
D|--10-13--------------10-10----10-13-----------10-13--------------10-10----10-12--8-10|
A|-------------------------------------------------------------------------------------|
E|-------------------------------------------------------------------------------------|

Verse:
e|-------------------------------------------|
B|-------------------------------------------|
G|-------------------------------------------|
D|--10---8-------------8---------------------|
A|-----------10---8-8-10-----10--------------|
E|-------------------------------------------|



************************************

| /   slide up
| \   slide down

************************************

Shes Long Gone Tabs – The Black Keys

 The Black Keys – She’s Long Gone                                                        


Guitar 1 – Standard
Guitar 2 - Standard

Intro

Guitar 1
e|--------------------------------0----------------------------------0--|
B|--------------------------------0----------------------------------0--|
G|----------------------------------------------------------------------|
D|---2-(h)2---0-------0----------------2-(h)2---0-------0---------------|
A|--------------2p0h2---2-------------------------2p0h2---2-------------|
E|-0----------------------3--3(s5)--0-----------------------3----(s5)---|

e|----------------------------------------------------------------------|
B|---------------------------------0------------------------------------|
G|---------------------------------0--------------------------2b3--2-0--|
D|---2-(h)2---0-------0-----------------2-(h)2---0-------0--------------|
A|--------------2p0h2---2--------------------------2p0h2---2------------|
E|-0----------------------3--3(s5)---0----------------------------------|

Guitar 1
e|--------------------------------------0-----------------------------------0-----|
B|--------------------------------------0-----------------------------------0-----|
G|--------------------------------------------------------------------------------|
D|-----2--(h)2----0----------0-----------------2-(h)2---0-------0-----------------|
A|-------------------2p0h2-----2--------------------------2p0h2---2---------------|
E|-0-----------------------------3-3(s5)--0------------------------3----(s5)------|
Guitar 2***************************************************************************
e|--------------------------------------------------------------------------------|
B|--------------------------------------------------------------------------------|
G|--------------------------------------------------------------------------------|
D|---14-(12h)14--12----------12-------------14-(12h)14--12---------12h14-(12)-14--|
A|------------------14-12h14----14s10----------------------14---------------------|
E|--------------------------------------------------------------------------------|


Guitar 1
e|--------------------------------------0-----------------------------------0-----------|
B|--------------------------------------0-----------------------------------0-----------|
G|--------------------------------------------------------------------------------------|
D|-----2--(h)2----0----------0-----------------2-(h)2---0-------0-----------------------|
A|-------------------2p0h2-----2--------------------------2p0h2---2---------------------|
E|-0-----------------------------3-3(s5)--0------------------------3----(s5)------------|
Guitar 2*********************************************************************************
e|--------------------------------------------------------------------------------------|
B|-------------------------------------------------------------------15—15h17p15--------|
G|-------------------------------------------------------------14s16-------------16s14--|
D|---14-(12h)14--12----------12-----------------14-(12h)14------------------------------|
A|------------------14-12h14----14s10---12p10-------------------------------------------|
E|--------------------------------------------------------------------------------------|

Verse

e|--------------------------------0----------------------------------0--|x4     
B|--------------------------------0----------------------------------0--|
G|----------------------------------------------------------------------|
D|---2-(h)2---0-------0----------------2-(h)2---0-------0---------------|
A|--------------2p0h2---2-------------------------2p0h2---2-------------|
E|-0----------------------3--3(s5)--0-----------------------3----(s5)---|

Chorus

Guitar 1
e|--------------------------------------------------------------|
B|--------------------------------------------------------------|
G|-------------------------------------------------------------

The Baddest Man Alive Tabs by Black Keys V2

 -------------------------------------------------------------------------------
                              The Black Keys (with RZA) - The Baddest Man Alive 
-------------------------------------------------------------------------------
Album : The Man With The Iron Fists (2012)
Tempo : 84
 gwendal.mollo@orange.fr
: newg


Just two chords during the song : Am and Dm.
Check my Guitar pro 6 version.

Intro :
    Am       Am      Dm      Dm      Am
E |--17---|--17---|--20---|--20---|-------|
B |-------|-------|-------|-------|--22---|
G |-------|-------|-------|-------|-------|
D |-------|-------|-------|-------|-------|
A |-------|-------|-------|-------|-------|
E |-------|-------|-------|-------|-------|

Guitar 1 :
Intro/Verse/Chorus/Outro
                 Am                  
E |--------------5-----------------------5-------------|
B |--------------5-----------------------5-------------|
G |--------------5-----------------------5-------------|
D |--------------7-----------------------7-------------|
A |----------------------------------------------------|
E |----------------------------------------------------|  x5
 
                 Dm
E |--------------5-----------------------5-------------|
B |--------------6-----------------------6-------------|
G |--------------7-----------------------7-------------|
D |--------------7-----------------------7-------------|
A |--------------5-----------------------5-------------|
E |----------------------------------------------------| x2

Guitar 2 :
Play on octave up.
                Am
E |--------------12----------------------12------------|
B |--------------13----------------------13------------|
G |--------------14----------------------14------------|
D |----------------------------------------------------|
A |----------------------------------------------------|
E |----------------------------------------------------| x5

             Dm
--------------17----------------------17------------|
--------------18----------------------18------------|
--------------19----------------------19------------|
----------------------------------------------------|
----------------------------------------------------|
----------------------------------------------------| x2

Guitar 3 :
Palm mute + small disto.
    
     Am
E |--------------------------0-------------------------|
B |--------------------1M----------1M----3h-1----------|
G |--2M----------2M----------------------------2h-0----|
D |----------------------------------------------------|
A |----------------------------------------------------|
E |----------------------------------------------------| x5

  Am
--------------0-------------|
-----------1--------3--1----|
--2M-2M-2M-------2----------|
----------------------------|
----------------------------|
----------------------------| variation


    D5
E |----------------------------------------------------|
B |--3-----3-----3-----3-----3-----3-----3-----3-------|
G |--2-----2-----2-----2-----2-----2-----2-----2-------|
D |--0-----0-----0-----0-----0-----0-----0-----0-------|
A |----------------------------------------------------|
E |----------------------------------------------------|

 Dm
--1-----1-----1-----1-----1-----1-----1-----1-------|
--3-----3-----3-----3-----3-----3-----3-----3-------|
--2-----2-----2-----2-----2-----2-----2-----2-------|
--0-----0-----0-----0-----0-----0-----0-----0-------|
----------------------------------------------------|
----------------------------------------------------| x1

Or :
     Dm
E |----------------------------------------------------|
B |----------------------------------------------------|
G |----------------------------------------------------|
D |--7M----7M----7M----7M----7M----7M----7M----7M------|
A |--5M----5M----5M----5M----5M----5M----5M----5M------|
E |----------------------------------------------------|

Fifteen Keys chords – Uncle Tupelo

 Fifteen Keys - Uncle Tupelo

Notes: 

1. This is my own interpretation, could not find chords for this song
anywhere on line, so I worked it out on my own. I'm also a beginner, so
there may be more advanced chords that can be used. Suggestions welcome!

2. I play a Cadd9 on this, but C would work also. For a slightly different
sound, Cmaj7 works also.

3. This is my second posting of this song, I neglected to add the instrumental 
break after verse 2 in the original.



 Cadd9 G Em 
Watch it separate in two
 Cadd9 G Em 
Whatever the day wants it to
 Cadd9 G Em 
Finding out that the worst is true
 Cadd9 G Em 
Finding out that it can escape you

CHORUS:
 Em Cadd9 D  
Slings and arrows completes the score
        G D 
Always leaving, wanting more
       Am Cadd9 G Em 
And I try to throw it away


 Cadd9 G Em 
Silver spikes and mace displayed in your eyes
 Cadd9 G Em 
Fearlessness, cannot fathom What's on your mind
 Cadd9                   
Been there, no luck at all
                 G D 
Nothing left to lose
 Cadd9 Em 
Been there, no luck at all
                 G D 
Nothing left to lose
           Am      
I've been there

 Cadd9 D G D Am Cadd9 G D Am Cadd9 G Em Cadd9 G Em  
"Danger/Slow" says the sign ahead
 Cadd9 G Em  
Exhaust fumes, Thin Lizzy instead
 Cadd9 G Em 
Left all pressing cares along the road
 Cadd9 G Em 
Fifteen keys, but where do they go?

CHORUS:
 Em Cadd9 D  
Slings and arrows completes the score
        G D 
Always leaving, wanting more
       Am Cadd9 G Em 
And I try to throw it away

 Cadd9 G 
Strings that pull, strings that bend
      Em Am     
This song and dance never ends

 D G D Am Cadd9

Tighten Up Tabs by Black Keys V6

 : yulizavala22
Black Keys
Brothers
Tighten Up

This is an awesome song by The Black Keys one of my
favorite and this song is a fun song to play. The tab here
 is like 99.99% correct because I have done research and
seen videos and even looked at an interview with
Guitar World where he gave a lot of the tabs, so this is
as accurate as you can get, enjoy.

Intro after bass
e|--9--9----9--9---7-7------------|
B|--10-10---9--9---7-7------------|
G|--11-11---9--9---7-7-----10-10--|
D|-(11-11---11-11--9-9)----11-11--|
A|------------------------(11-11)-|
E|--------------------------------|
Everything in parenthesis is optional, but I think
it makes it sound better

You can hear this at (0:13) but it is played many times in the background

e|---------------------------------------------------------|
B|---------------------------------------------------------|
G|---------------------------------------------------------|
D|---4---4-2-----------------------------------------------|
A|-----------4s2-0-0---2-0---0-2-2p0-2-0---0-2s4-4s2-0-2---|
E|-2---2-------------2-----2-------------2-----------------|

This is played twice in the song one at (0:38) and at (1:44)
e|-12h14-12h14-12-14-12----------12------------------------|
B|----------------------14s12s14----14s12-10-12s10s12------|
G|---------------------------------------------------------|
D|---------------------------------------------------------|
A|---------------------------------------------------------|
E|---------------------------------------------------------|

e|---------------------------------|
B|-12-10-12-10---------------------|
G|-------------11s9s11-9-9---------|
D|-------------------------11-9-7~-|
A|---------------------------------|
E|---------------------------------|

Then there is a second part similar to this but its played higher and there
is more to it. It is also played twice like the other one, one at (1:07) and the other at (2:12).

e|----------------------------|
B|-19-19-17h19-17-------------|
G|----------------18s16-(x2)--|
D|----------------------------|
A|----------------------------|
E|----------------------------|

e|----------------------------- ----------------|
B|-19-19-17h19-17-------------- ----------------|
G|----------------18s16--18-18- 18-14-14--------|
D|----------------------------- --------16-14---|
A|-----------------------------  ^played fast---|
E|----------------------------- ----------------|

e|----------------------------|
B|-19-19-17h19-17-------------|
G|----------------18s16-(x2)--|
D|----------------------------|
A|----------------------------|
E|----------------------------|

e|-------------17-----------------------------|
B|-19-19-17h19----19-17-----------------------|
G|----------------------18-18-16-14-16-14-----|
D|----------------------------------------16~-|
A|--------------------------------------------|
E|--------------------------------------------|

Then it goes into a strange breakdown thing with effects
e|-----------------|
B|-----------------|
G|-----------------|
D|-----------------|
A|-----------------|
E|-0-2-0-2-0-2-0---| 

Never Gonna Give You Up chords – Black Keys

 Never Gonna Give You Up - The Black Keys
'Brothers'

Intro Riff

Chorus
 Em F#m 
Never gonna give you up
 Em F#m 
No matter how you treat me
 Em F#m 
Never gonna give you up
 Em F#m 
So don't you think of leavin'

Verse 1
 Em 
Girl, you treat me bad
 A  
And I know why
 Fm 
I've seen you runnin' around 
 Bm 
With another guy
 Em 
And you think if you hurt me 
 A 
That I'll go away
 Fm 
But, I've made up my mind that 
 Bm 
I'm here to stay

[Chorus] 

 C 
Baby, don't you understand
 A 
What you're doing to the man?

Verse 2
 Em 
Do you see these tears 
 A 
In my eyes?
 Fm 
Ain't no use in me lyin'
 Bm 
Cause already cried
 Em 
You think you're gonna take me
 A 
And put me on the shelf
 Fm 
I'd rather die 
 Bm 
Than see you with somebody else

[Chorus]

 C 
Baby, don't you understand
 A 
What you're doing to the man?

Bridge [Intro melody]

Verse 3
 Em 
My friends all say 
 A 
That I'm your fool 
 Fm 
And you're using me like 
 Bm 
A carpenter uses a tool 
 Em 
I know their intentions 
 A 
Are all very good 
 Fm 
Some of them would help me 
 B ,
If they could 

[Chorus]

 C 
Baby, don't you understand
 A 
What you're doing to the man?

[Chorus] x2

by Ollietherocker 12/01/14

Desperate Man Tabs by Black Keys

 THE BLACK KEYS

Desperate Man (Live in Sydney)

 Danleary

Key

 b : Bend
 r : Release
 / : Slide into
 \ : Slide out of
 h : Hammer on
 p : Pull off
(-): Ghost note
 ~ : Vibrato
 x : Mute
 U : Up stroke
 D : Down stroke
 T : Fret with thumb
 . : Staccato 

___________________________________________________________

Standard Tuning
___________________________________________________________

Intro

Delta fingerstyle using thumb and index. He plays with a slide
on his pinky.

 
                       
e|---3------------|---3---------------|
B|---3--------3---|---3---------------|
G|---4--------3---|---4---------------|
D|---5------3-3---|---5--5\3---5v-----|
A|------3h5-------|----------5--------|
E|3-------------0-|3---------------0--|


e|---3------------|---3---------------|
B|---3--------3---|---3---------------|
G|---4--------3---|---4--------3/5----|
D|---5------3-3---|---5--5\3-------5--|
A|------3h5-------|----------5--------|
E|3-------------0-|3------------------|


e|---3------------|---3---------------|
B|---3--------3---|---3---------------|
G|---4--------3---|---4---------------|
D|---5------3-3---|---5--5\3---5v-----|
A|------3h5-------|----------5--------|
E|3-------------0-|3---------------0--|

_________________________________________________

Verse

Pretty much the same as the intro, just less slides.


e|---3------------|---3---------------|
B|---3--------3---|---3---------3-----|
G|---4--------3---|---4---------3-----|
D|---5------3-3---|---5-------3-3-----|
A|------3h5-------|------3h5----------|
E|3-------------0-|3---------------0--|

See her walkin... etc...

___________________________________________________________

Chorus

Finally after a full minute, some variation!

1:01

e|3---------0-|------6b------|3---------0-|------6b------|
B|3-----6b--0-|5-----6b------|3-----6bv-0-|5-----6b------|
G|4---------0-|5-------------|4---------0-|5-------------|
D|5---------0-|5---0---------|5---------0-|5---0---------|
A|5-----------|3---0---------|5-----------|3---0---------|
E|3---0-------|----0------0--|3---0-------|----0---------|

___________________________________________________________

1:10

Back to the intro for the second verse.

___________________________________________________________

Chorus

1:56

Same as before.

___________________________________________________________

Bridge

2:05


e|---------------|---------------|---------------|----------------|
B|---------------|---------------|---------------|----------------|
G|---------------|---------------|---------------|--------------0-|
D|---5------5----|---5------3-5--|---5------5----|---5------3-5-0-|
A|------3h5------|------3h5------|------3h5------|------3h5-----0-|
E|3------------0-|3--------------|3------------0-|3---------------|

___________________________________________________________

Solo

2:13

e|----------------|-------------------|
B|8-8-8-8-8-6-6-6-|6------------------|
G|----------------|--7-7-7-7-6-5-3-5--|
D|----------------|-------------------|
A|----------------|-------------------|
E|----------------|-------------------|

e|----------------------|------6-8-8-6--|
B|6/8-8-8-8-8-6-6-6-6---|----8----------|
G|--------------------7-|7-7------------|
D|----------------------|---------------|
A|----------------------|---------------|
E|----------------------|---------------|


e|----------------|-------------------|
B|8-8-8-8-8-6-6-6-|6------------------|
G|----------------|--7-7-7-7-6-5-3-5--|
D|----------------|-------------------|
A|----------------|-------------------|
E|----------------|-------------------|


e|------------------|-----------------|
B|6/8-8-8-6-6-6-----|-----------------|
G|--------------7-5-|3----------------|
D|------------------|--5-3------------|
A|------------------|------5-3--------|
E|------------------|----------6b-0---|______

Act Nice And Gentle Tabs by Black Keys V3

 THE BLACK KEYS

Act Nice and Gentle

 Danleary

Key

 b : Bend
 r : Release
 / : Slide into
 \ : Slide out of
 h : Hammer on
 p : Pull off
(-): Ghost note
 ~ : Vibrato
 x : Mute
 U : Up stroke
 D : Down stroke
 T : Fret with thumb
 . : Staccato 

___________________________________________________________

Standard Tuning
___________________________________________________________

Intro

Delta fingerstyle using thumb and index. 

 E
                       
e|--------------0----0----------|--------------0----0----------|
B|---------0h2-----2p0----0-----|---------0h2-----2p0----0-----|
G|-----0h1----------------------|-----0h1----------------------|
D|---2-------2-----2------------|---2-------2-----2------------|
A|------------------------------|------------------------------|
E|0------0------0------0----3b--|0------0------0------0----3b--|

______________________________________________________________ 

Verse

very slightly different than the intro.

e|--------------0----0--------|--------------0----0-------|
B|-------0-2-------2----------|-------0-2----0--2-0--2p0--|
G|---0h1----------------------|---0h1---------------------|
D|---2-------2-----2----------|---2-------2-----2------2--|
A|----------------------------|---------------------------|
E|0------0------0------0--3^--|0------0------0------0-----|
    Where'd you get...                 goodness knows...


e|--2--2-----2-----2p0---0--|---------------|
B|--2--2-----2-----2p0-2-0--|---------------|
G|--------------------------|---------------|
D|--------------------------|---------------|
A|0----0--0--0--0--0--------|---------------|
E|--------------------------|---------------|
    Just show...


e|2--2----2--2--2-0---0--|---------------|
B|0--0----0--0--0---2----|---------------|
G|2--2----2--2--2--------|---------------|
D|1--1----1--1--1--------|---------------|
A|2--2----2--2--2--------|---------------|
E|-----------------------|---------------|
  Act nice... 

______________________________________________________________ 

Chorus 

It looks a bit strange, but it's really just an 
A barre chord with the thumb on the bass note, and an A6 
when using that pinky on the 7th fret. 

e|5-----5---------|5---5-5---------|
B|7-----5---------|7---7-5---------|
G|----------6-----|----------6-----|
D|------------7---|------------7---|
A|----------------|----------------|
E|5-----5---------|5---5---5-------|


e|5-----5---------|5---5---5-------|
B|7-----5---------|7---7---5-------|
G|----------6-----|----------6-----|
D|------------7---|------------7\--|
A|----------------|----------------|
E|5-----5---------|5---5---5-------|
                   false eye lashes...

____________________________________________________________________

And that's the gist of it, with some minor variation here and there.
The outro is basically just a slowed down intro, with some 
embellishments round the E major chord.

Juniors Instrumental Tabs by Black Keys V3

 THE BLACK KEYS

Junior's Intrumental

 Danleary

Key

 b : Bend
 r : Release
 / : Slide into
 \ : Slide out of
 h : Hammer on
 p : Pull off
(-): Ghost note
 ~ : Vibrato
 x : Mute
 U : Up stroke
 D : Down stroke
 T : Fret with thumb
 . : Staccato 

___________________________________________________________

Standard Tuning
___________________________________________________________


As always (or nearly anyways), delta style fingerpicked using only thumb 
and index.

e|-----------------------------------------------------------|
B|------3--------3h5-3p0--------------------------3----------|
G|2-2-0---2-------------------2h4-2p0-----2p0-2/4---4\2p0----|
D|--------------------------------------------------------2--|
A|-------------------------------------2------0--------------|
E|------------0-----------0----------------------------------|


e|-------------------------------------------|
B|--3h5-3p0-----------------------3----------|
G|-------------2h4-2p0----2p0-2/4---4\2p0----|
D|----------------------------------------2--|
A|---------------------2------0--------------|
E|0---------0--------------------------------|

0:12


e|---------------------------------------------------|
B|----------------------------------------3----------|
G|------0h2-0h2-------2-0h2-----2p0---2/4---4\2p0----|
D|------------------------------------------------2--|
A|0-----------0-----------0-----------0--------------|
E|---------------------------------------------------|


0:16

e|---------------------------------------------|
B|---------------------------3-----------------|
G|------2---0h2-----2--0-----------2------0h2--|
D|---------------------------------------------|
A|0-----0-----0-----------0-----0--------------|
E|---------------------------------------------|


0:21

e|-------------------------------------------|
B|--3h5-3p0-----------------------3----------|
G|-------------2h4-2p0----2p0-2/4------------|
D|-------------------------------------------|
A|-------------------------------------------|
E|0------------------------------------------|


e|-------------------------------------------|
B|--3h5-3p0-----------------------3----------|
G|-------------2h4-2p0----2p0-2/4---4\2p0----|
D|----------------------------------------2--|
A|---------------------2------0--------------|
E|0---------0--------------------------------|

0:29

e|-----------------------------------------------|
B|----------------------------------------3------|
G|------0h2-0h2-----2---0h2-----2---0h2-----2/4--|
D|-----------------------------------------------|
A|0-----0-----------0-----0-----0-----0----------|
E|-----------------------------------------------|

0:34

e|-----------------------------------------------|
B|----------------------------------------3------|
G|------2---0h2-----2---0h2-----2---0h2-----2/4--|
D|-----------------------------------------------|
A|0-----0-----0-----0-----0-----------0----------|
E|-----------------------------------------------|


0:39

e|------------------------------------------|
B|--3h5-p0-----------------------3----------|
G|------------2h4-2p0----2p0-2/4---4\2p0----|
D|---------------------------------------2--|
A|--------------------2--2---0--------------|
E|0-0---------0-----------------------------|


0:44


e|-----------------------------------------|
B|--3h5-3p0--------------------------------|
G|-------------2h4-2p0----2p0-2/4---4\2----|
D|-----------------------------------------|
A|---------------------2------0------------|
E|0-0-------0------------------------------|


0:48


e|----------------------------0----------------|
B|------------------------------3/5------------|
G|------2---0h2-----2---0h2----------4\2---0---|
D|---------------------------------------------|
A|0-----0-----0-----0-----0----------0-----0---|
E|---------------------------------------------|

0:

Little Black Submarines intro Tabs by Black Keys

 THE BLACK KEYS

Little Black Submarines

 Danleary

Key

 b : Bend
 r : Release
 / : Slide into
 \ : Slide out of
 h : Hammer on
 p : Pull off
(-): Ghost note
 ~ : Vibrato
 x : Mute
 U : Up stroke
 D : Down stroke
 T : Fret with thumb
 . : Staccato 

___________________________________________________________

Standard Tuning
___________________________________________________________

A detailed look at the fingerpicked acoustic section. Delta style using only 
index and thumb. The chords are just the cowboy versions of Am, G, D, A, and C.


e|----0---------0-----------------|--------------------------------|
B|----1-------------1-----------1-|----1---------1-------1-------0-|
G|----2-----2-----------2---0h2---|----------2-------2-------2-----|
D|----2-------2-------2-------2---|----2-------2-------2-------2---|
A|0-------0-------0-------0-------|0-------0-------0-------0-------|
E|--------------------------------|--------------------------------|

___________________________________________________________________________


e|--------------------------------|----2---------------------------|
B|----1---------0-----0---------0-|----------3---0-----2---------0-|
G|----------2---------------0-----|----2-------2-------------2-----|
D|----2-------2-------0-------0---|0-------0-----------2-------2---|
A|0-------0-----------------------|----------------0-------0-------|
E|----------------3-------3-------|--------------------------------|



e|--------------------------------|----------------------0---------|
B|----1---------0-----0---------0-|----2---------2-----------2-----|
G|----------2---------------0-----|----------2-------2-----------0-|
D|----2-------2-------0-------0---|----2-------2-------2-------2---|
A|0-------0-----------------------|0-------0-------0-------0-------|
E|----------------3-------3-------|--------------------------------|

___________________________________________________________________________


e|--------------------------------|----2---------------------------|
B|----1---------0-----0---------0-|----------3---0-----2-----------|
G|----------2---------------0-----|----2-------2-------------------|
D|----2-------2-------0-------0---|0-------0-----------2-----------|
A|0-------0-----------------------|----------------0-------0---2---|
E|----------------3-------3-------|--------------------------------|


e|--------------------2-----------|----------------------0---------|
B|----1---------0-----------3---0-|----2---------2-----------2-----|
G|----------0---------2-------2---|----------2-------2-----------0-|
D|----2-------2---0-------0-------|----2-------2-------2-------2---|
A|3-------3-----------------------|0-------0-------0-------0-------|
E|--------------------------------|--------------------------------|


___________________________________________________________________________




e|--------------------------------|----2---------------------------|
B|----1---------0-----0---------0-|----------3---0-----2-----------|
G|----------2---------------0-----|----2-------2-------------------|
D|----2-------2-------0-------0---|0-------0-----------2-----------|
A|0-------0-----------------------|----------------0-------0---2---|
E|----------------3-------3-------|--------------------------------|


e|--------------------2-----------|--------------0-----------------|
B|----1---------0-----------3---0-|----2-------------2-------------|
G|----------0---------2-------2---|----------2-----------2---------|
D|----2-------2---0-------0-------|----2-------2-------2-----------|
A|3-------3-----------------------|0-------0-------0-------0---2---|
E|--------------------------------|--------------------------------|


e|--------------------2-----------|----------------------0---------|
B|----1---------0-----------3---0-|----2---------2-----------2-----|
G|----------0---------2-------2---|----------

The Moan Tabs by Black Keys V3

 The Moan (John Peel Sessions)

Key

 b : Bend
 r : Release
 / : Slide into
 \ : Slide out of
 h : Hammer on
 p : Pull off
(-): Ghost note
 ~ : Vibrato
 x : Mute
 u : Up stroke
 d : Down stroke
 T : Fret with thumb
 . : Staccato 


This song is played delta fingerstyle using only the thumb and
index fingers. Thumb and fingerpick may have been used, but I believe 
Dan went bare fingers by this time.

____________________________________________________________________________

Intro


e|3--3-3-3--3-3--3-3-|2--2-2-2--2-2--2-2-|1--1-1-1--1-1--1---|--------0---|
B|3--3-3-3--3-3--3-3-|2--2-2-2--2-2--2-2-|1--1-1-1--1-1--1-0-|--------0---|
G|4--4-4-4--4-4--4-4-|3--3-3-3--3-3--3-3-|2--2-2-2--2-2--2-0-|2b------0---|
D|5--5-5-5--5-5--5-5-|4--4-4-4--4-4--4-4-|3--3-3-3--3-3--3-0-|--------0---|
A|5--5-5-5--5-5--5-5-|4--4-4-4--4-4--4-4-|3--3-3-3--3-3--3-0-|----------2-|
E|3--3-3-3--3-3--3-3-|2--2-2-2--2-2--2-2-|1--1-1-1--1-1--1---|------------|


e|0-------------------0-|0-------------------------|
B|0------------3------0-|0------------------0h2p0--|
G|1---------------2---0-|1--------------0h1--------|
D|2---0---2-----------0-|2---0---2---2-------------|
A|2-----2---------------|2-----2-------------------|
E|0---------0---0---0---|0---------0---0--0---0----|


e|0---------------------|0---------------------|
B|0------------3------0-|0------------3------0-|
G|1---------------2---0-|1---------------2---0-|
D|2---0---2-----------0-|2---0---2-----------0-|
A|2-----2---------------|2-----2---------------|
E|0---------0---0---0---|0---------0---0---0---|

____________________________________________________________________________

4:07

e|------------------|-------------------0-|
B|------------------|-----------3-------0-|
G|------------------|----0----------2---0-|
D|2-2-0---0-2-2---0-|2-2-----2----------0-|
A|------2-------2---|------2--------------|
E|0-0-------0-0-----|0-0-------0--0---0---|
  Poor boy... 

e|--0-----------------------|0-------------------0-|
B|--0-----------------0h2p0-|0------------3------0-|
G|--1-------------0h1-------|1---------------2---0-|
D|2-----0---2---2-----------|2---0---2-----------0-|
A|--------2-----------------|2-----2---------------|
E|----0-------0-----0---0---|0---------0---0---0---|


4:17

e|------------------|-------------------0-|
B|------------------|-----------3-------0-|
G|------------------|----0----------2---0-|
D|2-2-0---2-2-2---0-|2-2-----2----------0-|
A|------2-------2---|------2--------------|
E|0-0-------0-0-----|0-0-------0--0---0---|

Poor boy


e|--0----------------------0-|--0----------------------0-|
B|--0-------------3--------0-|--0-------------3--------0-|
G|--1------------------2---0-|--1------------------2---0-|
D|2-----0---2--------------0-|2-----0---2--------------0-|
A|--------2------------------|--------2------------------|
E|----0-------0-----0----0---|----0-------0-----0----0---|


4:26


e|------------------|-------------------0-|
B|------------------|-----------3-------0-|
G|------------------|----0----------2---0-|
D|2-2-0---2-2-2---0-|2-2-----2----------0-|
A|------2-------2---|------2--------------|
E|0-0-------0-0-----|0-0-------0--0---0---|

 Poor boy


e|--0---------------------------|--0----------------------0-|
B|--0--------------------0h2p0--|--0-------------3--------0-|
G|--1---------------0h1---------|--1------------------2---0-|
D|2-----0---2---2---------------|2-----0---2--------------0-|
A|--------2---------------------|--------2------------------|
E|----0-------0---0---0----0----|----0-------0-----0----0---|

4:36

e|------------------|-------------------0-|
B|------------------|-----------3-------0-|
G|------------------|----0----------2---0-|
D|2-2-0---2-2-2---0-|2-2-----2----------0-|
A|------2-------2---|------2--------------|
E|0-0-------0-0-----|0-0-------0--0---0---|

 Girl do me no wrong...


e|0-------------------0-|0------

If You See Me Tabs by Black Keys V3

                                   ~~~~~~~~~~~~~~~~~~~~~~~~~~~~~~~~~~~~~~~~
                                                If You See Me
                                                  Black Keys
                                                Thickfreakness
                                  ~~~~~~~~~~~~~~~~~~~~~~~~~~~~~~~~~~~~~~~~
: Connor O.
Tuning: Standard



Pretty fast paced song. As a result, I'm not going to time everything out. I'll
only time the parts that might cause serious confusion for the unaided ear. 

A lot of the bass-line parts (e.g. - at 0:10) are hard to hear on account 
of the drums. I tried to tab out the bass-line as best I could but I'm sure I've
missed a beat here or there. I put *'s under the chord boxes to signify bassline
progression chronologically, so if I didn't tab the bassline at a certain point
you'll be able to see where it belongs. 

Comment or message any ideas or corrections. Please rate my tab. If you've got
problems with the tab, I'd encourage you to contact me with those problems so I
can fix the tab or provide advice for playing. Don't just give me a poor rating
and not give me any feedback. The idea is for us all to work together to create
a perfect finished product. This tab just represents the best I can do. It's 
definitely up for peer review.



Key:
where # represents a fret number

#h# - hammer
#p# - pull
/ \ - slides, up and down respectively.
#b# - bend from normal note up to achieve bended note.
#r# - release bend from bended note to normal note.
#pb - bend up on # then attack and release
#b  - a slight bend a.k.a. a curl.
 x  - mute




Intro:


  0:00
    
e|---------0-----------------------|
B|---------0-------3-------2-------|
G|-----0h1---------1-------1-------|
D|---------------------------------|
A|---------------------------------|
E|-0-----------0-------0-----------|
   *   *   *   *   *   *   *   *

  

e|---------0-----------------------|
B|---------------------------------|
G|-----0h1-------------------------|
D|---------------------------------|
A|---------------------------------|
E|-0---------------0---------------|
   *   *   *   *   *   *   *   *



e|---------0-----------------------|
B|---------0-------3-------2-------|
G|-----0h1---------1-------1-------|
D|---------------------------------|
A|---------------------------------|
E|-0-----------0-------0-----------|
   *   *   *   *   *   *   *   *

  

e|---------0-----------------------|
B|---------------------------------|
G|-----0h1-------------------------|
D|---------------------------------|
A|---------------------------------|
E|-0---------------0---------------|
   *   *   *   *   *   *   *   *

  0:08

e|---------0-----------------------|
B|---------0-------3-------2-------|
G|-----0h1---------1-------1-------|
D|---------------------------------|
A|---------------------------------|
E|-0-----------0-------0-----------|
   *   *   *   *   *   *   *   *

  0:10

e|---------0-----------------------|
B|---------0-----------3-----------|
G|-----0h1---------2/4-----2-------|
D|-----------------------------0h2-|
A|---------------------------------|
E|-0-----------0-------------------|
   *   *   *   *   *   *   *   *



e|---------0-----------------------|
B|---------0-------3-------2-------|
G|-----0h1-------------------------|
D|---------------------------------|
A|---------------------------------|
E|-0-----------0-------0-----------|
   *   *   *   *   *   *   *   *

  0:14
                           If  you
e|---------0-----------0-----------|
B|---------0-----------3-----------|
G|-----1---------------1-----------|
D|---------------------------------|
A|---------------------------------|
E|-0-----------0---0---0---3---4---|



Verse 1:


  0:16
   see me    comin'
e|---------------------3-----------|
B|---------------------2-----------|
G|--------

Stop Stop Tabs by Black Keys V3

 The Black Keys - Stop Stop [Transposed half step down]

The intro is a two guitar section. Gtr 1 has to strum the chords downwards ONCE
above the tabs while Gtr 2 has to do the intro solo below:

Gtr 1:   C                          Cm

Gtr 2:E--------------------------------------------------------|
      B-------4-6--6/8--6-4-6-8----------4-6--6/8--6-4-6-4-----|
      G--5--5---------------------3-5--5-------------------5-3-|
      D--------------------------------------------------------|
      A--------------------------------------------------------|
      E--------------------------------------------------------|

Gtr 1:   F                          Fm
                                      <let ring="">
Gtr 2:E-------------------------------------------------------|
      B-------4-6--6/8--6-4-6/8---------------------6b8r6-4---|
      G--5--5---------------------3/5-----------------------3-|
      D-------------------------------------------------------|
      A-------------------------------------------------------|
      E-------------------------------------------------------|

[VERSE:]
C
You're wound up like a weapon
You've got an evil streak
They told me to stay away
But I was much too weak

[CHORUS:][Chords exactly aligned to the words you're supposed to strum them.]

                C     A#             F         F
Yeah, you gotta, stop stop can't you hear me call and singing
C      A#        F
  Stop stop it girl
F               C     A#             F        F
Yeah, you gotta, stop stop can't you see me fall into you
C      A#        F    F
  Stop stop it girl


C
I hounded you forever
But you never saw
This love was so strong it shoulda [DRUMS GO SILENT]
Been against the law

[PLAY CHORUS]

[PRE SOLO:] (Once played alone, continue repeating this section while the other guitar 
is playing the actual solo.)

E------------------------------------------------------------|
B------------------------------------------------------------|
G---------------------------------10--10--10--10--8--8--8--8-|
D-10--10--10--10--10--10--10--10--10--10--10--10--8--8--8--8-|
A-10--10--10--10--10--10--10--10-----------------------------|
E------------------------------------------------------------|


[SOLO:] Insanely use vibrato on B string.

E---------------------------------------------------------------------------|
B--5///13--13--13--13--13--13--13---13/11--11--11--11--11/10--10---10-11-10-|
G---------------------------------------------------------------------------|
D---------------------------------------------------------------------------|
A---------------------------------------------------------------------------|
E---------------------------------------------------------------------------|

E---------------------------------------------------------------------------|
B--5///13--13--13--13--13--13--13---13/11--11--11--11--11/10--10---10-11-10-|
G---------------------------------------------------------------------------|
D---------------------------------------------------------------------------|
A---------------------------------------------------------------------------|
E---------------------------------------------------------------------------|

E--------------------------------------------------------------------------|
B--5///13--13--13--13--5//13--13--13--13--13/11--11--11--11--11/10--10-----|
G------------10--10--10---------10--10--10---------------------------------|
D--------------------------------------------------------------------------|
A--------------------------------------------------------------------------|
E--------------------------------------------------------------------------|

E---------------------------------------------------------------|
B-8-8----8/10/8---6--6-8-8---8--8--8--6--6--4--4/6------4-------|
G---------------------------------------------------------------|
D------------------------------