Tag: king

Baarish – Half Girlfriend chords by Ash King

[Intro]
 C

[Verse]
C
Chehre mein tere
              F
Khud ko main dhoondhun
G
Aankhon ke darmiyaan
                 F
Tu ab hai iss tarah
G                         F
Khwabon ko bhi jagah na mile

[Chorus]
       Am
Yeh mausam ki baarish
      F
Yeh baarish ka paani
      G
Yeh paani ki boondein
 G
Tujhe hi toh dhoondhe
      F
Yeh milne ki khwahish
    F
Yeh khwahish puraani
     G
Ho poori tujhi se
   Em         F
Meri yeh kahaani

[Instrumental]
Am F G Em x2

[Verse]
C
Kabhi tujhme utrun
C
Toh saanson se guzrun
      F
Toh aaye dil ko raahat

        C
Main hoon bethikana
C
Panaah mujhko paana
      F
Hai tujhme, de ijazat

   G
Na koi darmiyaan
G
Hum dono hai yahan
      Em
Phir kyun hai tu bata
F
Faasley…

[Chorus]
       Am
Yeh mausam ki baarish
      F
Yeh baarish ka paani
      G
Yeh paani ki boondein
 G
Tujhe hi toh dhoondhe
      F
Yeh milne ki khwahish
    F
Yeh khwahish puraani
     G
Ho poori tujhi se
   Em         F
Meri yeh kahaani

[Instrumental]
Am F G Em x2

C Em F

[Verse]
    C
Hawaaon se tera pata poochta hoon
         F
Ab toh aaja tu kahin se
    C
Parindon ki tarah yeh dil hai safar mein
     F
Tu mila de zindagi se

     G
Bas itni ilteja
G
Tu aake ik dafa
             Em
Jo dil ne na kahaa
     F
Jaan le…

[Chorus]
       Am
Yeh mausam ki baarish
      F
Yeh baarish ka paani
      G
Yeh paani ki boondein
 G
Tujhe hi toh dhoondhe
      F
Yeh milne ki khwahish
    F
Yeh khwahish puraani
     G
Ho poori tujhi se
   Em         F
Meri yeh kahaani

King Of A One Horse Town Chords by Dan Auerbach

[Verse]
Am   F              Dm           G
Everyday is just a little white lie
Am         F        Dm      G
Telling myself I'm gettin' by
Am       F           Dm           G
I just stay in this room and cry
      F             G        Am
The snow it covers up the ground
    F               G     Am
And I can't hear a single sound

[Verse] 
Am                F     Dm            G
I'd turn off the TV and go for a drive
Am                F          Dm          G
But I can't see there's any signs of life
Am        F                 Dm             G
Kept a Christmas tree with blinking lights
           F               G     Am
I coulda made it but I messed around
      F              G     Am
I'm a loser with a rusted crown
  F           Am             Dm        G
Scared if I jump in the ocean I might drown

[Chorus]
 F         G         Am
King of a One Horse Town
         F         G         Am
I'm the King of a One Horse Town
       F                      
And I barely pull my weight around

[Verse]
Am                F         Dm            G
I thought about leaving but I don't know
Am             F     Dm            G
Wouldn't even know anywhere to go
Am              F     Dm            G
Guess I'll stay on desolation row
           F       G     Am
Go get stoned and hang around
                F            G     Am
The beat of my drum is the only sound
          F             Am           Dm         G
I would jump into the ocean but I'm scared I'd drown

[Chorus]
 F         G         Am
King of a One Horse Town
         F         G         Am
I'm the King of a One Horse Town
       F                      
And I barely pull my weight around

[Chorus]
 F         G         Am
King of a One Horse Town
         F         G         Am
I'm the King of a One Horse Town
       F                      
And I barely pull my weight around

King Of A One Horse Town Chords version 2 by Dan Auerbach

[Intro] 
Dm G Em7 G7 (play the Em7 by moving your pinky to the 5th fret of the second string from a normal G bar chord)

[Verse]
Dm                 G               Em7 G7
Everyday is just a little white lie
Dm                 G          Em7 G7
Telling myself I'm gettin' by
Dm                  G            Em7 G7
I just stay in this room and cry
C                  Bm     Am     Dm Em 
The snow it covers up the ground
C                  Bm     Am
And I can't hear a single sound

Dm                      G             Em7 G7
I'd turn off the TV and go for a drive
Dm                          G             Em7 G7
But I can't see there's any signs of life
Dm                         G               
Kept a Christmas tree with blinking lights
C                      Bm     Am     Dm Em
I coulda made it but I messed around
C                  Bm     Am    Dm Em
I'm a loser with a rusted crown
Dm                            Em
Scared if I jump in the ocean I might drown

[Chorus]
C         Bm        Am   Dm Em
King of a One Horse Town
C                 Bm        Am   Dm Em
I'm the King of a One Horse Town 
      F Em   Dm   C  B  A   G
And I barely pull my weight around

[Verse]
Dm                          G            Em7 G7
I thought about leaving but I don't know
Dm                     G          Em7 G7
Wouldn't even know anywhere to go
Dm                      G         Em7 G7
Guess I'll stay on desolation row
       C          Bm      Am   Dm Em
Go get stoned and hang around
               C           Bm   Am     Dm Em
The beat of my drum is the only sound
        Dm                          Em 
I would jump into the ocean but I'm scared I'd drown

[Chorus]
C         Bm        Am    Dm Em
King of a One Horse Town
      C         Bm        Am     Dm Em
I'm a King of a One Horse Town
      C         Bm        Am   Dm Em 
I'm a King of a One Horse Town
      F  Em  Dm   C  B  A   G
And I barely pull my weight around

      C         Bm        Am    Dm Em
I'm a King of a One Horse Town
C         Bm        Am    Dm Em
King of a One Horse Town
      C         Bm        Am    Dm Em
I'm a King of a One Horse Town
      F  Em  Dm   C  B  A   G
And I barely pull my weight around

Exs And Ohs Piano Chords by Elle King

[Intro]

Em 


[Verse 1]

Em
Well, I had me a boy, turned him into a man
Em
I showed him all the things that he didn't understand
B7                        Em
Whoa, and then I let him go

Em
Now, there's one in California who's been cursing my name
Em
'Cause I found me a better lover in the UK
B7                              Em
Hey, hey, until I made my getaway


[Pre-Chorus]
(Muted Strings)

One, two, three, they gonna run back to me
'Cause I'm the best baby that they never gotta keep
One, two, three, they gonna run back to me
They always wanna come, but they never wanna leave


[Chorus]

G             D                Em
Ex's and the oh, oh, oh's they haunt me
B                G              D
Like ghosts they want me to make 'em o-o-oh
A               C
They won't let go
            Em
Ex's and oh's


[Verse 2]

Em
I had a summer lover down in New Orleans
Em
Kept him warm in the winter, left him frozen in the spring
B7                           Em
My, my, how the seasons go by

Em
I get high, and I love to get low
Em
So the hearts keep breaking, and the heads just roll
B7                                Em
You know that's how the story goes


[Pre-Chorus]
(Muted Strings)

One, two, three, they gonna run back to me
'Cause I'm the best baby that they never gotta keep
One, two, three, they gonna run back to me
They always wanna come, but they never wanna leave


[Chorus 2]

G             D                Em
Ex's and the oh, oh, oh's they haunt me
B                G              D
Like ghosts they want me to make 'em o-o-oh
A               C
They won't let go

   G             D                Em
My ex's and the oh, oh, oh's they haunt me
B                G              D
Like ghosts they want me to make 'em o-o-oh
A               C
They won't let go
            Em
Ex's and oh's

Em B7 Em
[Pre-Chorus]
Muted strings

One, two, three, they gonna run back to me
Coming over mountains and a-sailing over seas
One, two, three, they gonna run back to me
They always wanna come, but they never wanna leave


[Chorus]

   G             D                Em
My ex's and the oh, oh, oh's they haunt me
B                G              D
Like ghosts they want me to make 'em o-o-oh
A               C
They won't let go


G             D                Em
Ex's and the oh, oh, oh's they haunt me
B                G              D
Like ghosts they want me to make 'em o-o-oh
A               C
They won't let go
            Em
Ex's and oh's

God Is In The Rhythm chords – King Gizzard & The Lizard Wizard

 Note: the format here is for the short version, not the full 10-minute version. The full version
has no additional chords, just slightly different song format to the short version.


[Verse 1/Chorus 1]
 F# D#m B C F# D#m B C 
Earth by the moon, darker days come soon
 F# D#m B C F# D#m B C 
Owl sings a tune, surely she knows too
 D#m Cm 
  Bird is waiting, expectating
 Bm C 
  God is in the rhythm


[Verse 2/Chorus 2]
 F# D#m B C F# D#m B C 
Earth by the sun,  brighter days to run
 F# D#m B C F# D#m B C 
Rain knows the sun,  knows it's not time to come
 D#m Cm 
  Rain is waiting, expectating
 Bm C 
  God is in the rhythm


[Solo]
 F# D#m B C  (x4)
 D#m Cm Bm C          

[Verse 3/Chorus 3]
 F# D#m B C F# D#m B C 
Seasons move, everybody knows it's true
 F# D#m B C F# D#m B C 
Springs brings a dew,  hibernates winters tune
 D#m Cm 
  Summer's waiting, expectating
 Bm C 
  God is in the seasons


[Interlude]
 F# D#m B C  (x4)

[Chorus 3]
 D#m Cm 
  Summer's waiting, expectating
 Bm C 
  God is in the seasons

[Outro]
 F# D#m B C  (until fade)

The Man Who Would Be King intro Tabs – Iron Maiden Vsion 2

 -------------------------------------------------------------------------------
                             The Man Who Would Be King - Iron Maiden
-------------------------------------------------------------------------------
: Kyle Zamory

Tuning: Standard

. submission. Enjoy!

************************************

| /   slide up
| \   slide down
| h   hammer-on
| p   pull-off
| ~   vibrato
| +   harmonic
| x   Mute note
| b   Bend
| pb  Pre-bend
| br  Bend release
| pbr Pre-bend release
| brb Bend release bend

************************************

e|--------------------------10-----------------------------------------------|
B|-----------10---12---13--------12---13-------------------------------------|
G|-----------------------------------------12--------------------------------|
D|---------------------------------------------------------------------------|
A|---------------------------------------------------------------------------|
E|---------------------------------------------------------------------------|

e|--------------------------10-----------------------------------------------|
B|-----------10---12---13--------12--------10--------------------------------|
G|------------------------------------12-------------------------------------|
D|---------------------------------------------------------------------------|
A|---------------------------------------------------------------------------|
E|---------------------------------------------------------------------------|
                                                                                    X2
e|--------------------------10---12---13--------10---------------------------|
B|-----------10---12---13------------------13--------12----------------------|
G|---------------------------------------------------------------------------|
D|---------------------------------------------------------------------------|
A|---------------------------------------------------------------------------|
E|---------------------------------------------------------------------------|

e|-----------13---12-H-13-P-12-P-10---8-H-10-P-8-----------------------------|
B|-------------------------------------------------12---8-H-10-P-10----------|
G|--------------------------------------------------------------------9------|
D|---------------------------------------------------------------------------|
A|---------------------------------------------------------------------------|
E|---------------------------------------------------------------------------|

King Of Swords Reversed chords – The Dear Hunter

 Key: C


 F G F G G 
Gears turning that no wrench can attack
 F 
Consideration
    G F 
Or pause had their time come and pass
 G F G 
No gloves bet you can't get enough
        G F G 
Make a fine parade so the public sways in your wake



 G                    
I just thought that I would go
 F 
Till the money's gone
 G F 
I never wanted to fake it
 G 
Now I can't stop till everyone
          F 
Who ever done me wrong
 G           
Knows I’m not willing to take it




                   F 
Boy, you've got a Hard time

Bring yourself to glory
 G 
(Do do do do do do do do do do)
              F 
You've got a Hard time

Bring yourself to glory




 G F 
I never wanted my name up in bright lights
                          C 
But I think that I might be there soon
                 F 
I owe it all to you (I owe it all to you)
 G F 
I was never Looking for fame or the limelight
                          C 
But I think that I might be there soon
                 F G 
I owe it all To you



 G F 
No one ever told me what it meant to be alone
 G F 
I had to learn on my lonesome
 G                           
Now every feigning flame I chance upon
           F 
I put the fire on
 G 
I keep my wheels in motion




                   F 
Boy, you've had a hard time

Bring yourself to glory




 G F 
I never wanted my name up in bright lights
                          C 
But I think that I might be there soon
                 F 
I owe it all to you (I owe it all to you)
 G F 
I was never Looking for fame or the limelight
                          C 
But I think that I might be there soon
                 G 
I owe it all To you

King Of The Mountain Tt Style Tabs – Redline

 -------------------------------------------------------------------------------
                KING OF THE MOUNTAIN TT STYLE - Redline
-------------------------------------------------------------------------------
: Sturginaldo

Tuning: Tune down half step
Br bend release 1/4 step
Play this riff 4 times

e|-----------------------------------------------------------------------|
B|-----------------------------------------------------------------------|
G|---------2---------------4----------4br---2--4-2-----------------------|
D|---------2---------------4----------4br---2--4-2-----------------------|
A|-----------------------------------------------------------------------|
E|-2-2-2---------2-2-2------2-2-2----------------------------------------|


Play this twice for the first two lines of the verse

e|-----------------------------------------------------------------------|
B|-----------------------------------------------------------------------|
G|-2---------------------------------------------------------------------|
D|-2--------2------------------------------------------------------------|
A|-0--------2---------------4444444444444444-----------------------------|
E|----------0---------------2222222222222222-----------------------------|
     Pulling fast, head down Bray


e|------------------------------------------------------------------------|
B|------------------------------------------------------------------------|
G|-2-----------------------------------------2--------2---4---2-----------|
D|-2---------2-------------------------------2--------2---4---2-----------|
A|-0---------2---------------44444444-------------4-----------------------|
E|-----------0---------------22222222-------------------------------------|
     Spitting victory or cruel defeat

e|------------------------------------------------------------------------|
B|------------------------------------------------------------------------|
G|-2-------------------------------2--4--2--5--4--2-----------------------|
D|-2---------2------------------4--2--4--2--5--4--2-----------------------|
A|-0---------2------------------4-----------------------------------------|
E|-----------0------------------------------------------------------------|
          She deals the cards of fate



e|------------------------------------------------------------------------|
B|-3----------------------------------------------------------------------|
G|-2-------------7--------------------------------------------------------|
D|-0-------------7-----------------2---2---2---4--------------------------|
A|-0-------------4-----------------2---2---2---4--------------------------|
E|---------------------------------0---0---0---2--------------------------|
          Rolling Thunder


e|---------------------------------2--------2-2---------------------------|
B|-3-------------------------------2--------------2-2---------------------|
G|-2-------------7-----------------4--------------------4-4---------------|
D|-0-------------7-----------------4--------------------------4-4---------|
A|-0-------------4-----------------2--------------------------------------|
E|------------------------------------------------------------------------|
          

e|------------------------------------------------------------------------|
B|-3----------------------------------------------------------------------|
G|-2-------------7--------------------------------------------------------|
D|-0-------------7-----------------2---2---2---4--------------------------|
A|-0-------------4-----------------2---2---2---4--------------------------|
E|---------------------------------0---0---0---2--------------------------|
          

e|---------------------------------2--------------------------------------|
B|-3-------------------------------2--------------------------------------|
G|-2-------------7-----------------4--------------------------------------|
D|-0-------------7-----------------4-------

Rock Me Baby Tabs – Bb King V3

 ROCK ME BABY

As recorded by B.B. King
(From the 1964 Album ROCK ME BABY)

Words and Music by B.B. King & Joe Bihari

 Slowhand


Gtr I (E A D G B E) - 'B.B. King - Electric Guitar'


 Intro
  Q=90(8=s8)
  N.C.
 4/4
  Gtr I (Clean El. Gtr.)
                     ~~~~~~~              ~~~~~~~              ~~~~~~~
  W          E  E E  E  +Q   Q    E  E E  E  +Q   Q    E  E E  E  +Q   e E
|----------|------8-------------|------8-------------|------8----------8----|
|----------|--------11-(11)-----|--------11-(11)-----|--------11-(11)-------|
|----------|--------------------|--------------------|----------------------|
|----------|--------------------|--------------------|----------------------|
|----------|---10---------------|---10---------------|---10-----------------|
|----------|--------------------|--------------------|----------------------|


           ~~~~~~~               ~~~~~~~
  E  E  E  E  +Q   Q    E  E  E  E  +Q   Q
|------13-------------|------13-------------|
|---------16-(16)-----|---------16-(16)-----|
|---------------------|---------------------|
|---------------------|---------------------|
|---15----------------|---15----------------|
|---------------------|---------------------|


          ~~~~~~~               ~~~~~~~
  E  E E  E  +Q   e E   E  E E  E  +Q   e E
|------8----------8---|------8----------8---|
|--------11-(11)------|--------11-(11)------|
|---------------------|---------------------|
|---------------------|---------------------|
|---10----------------|---10----------------|
|---------------------|---------------------|


           ~~~~~~~               ~~~~~~~
  E  E  E  E  +Q   Q    E  E  E  E  +Q   Q
|------15-------------|------13-------------|
|---------18-(18)-----|---------16-(16)-----|
|---------------------|---------------------|
|---------------------|---------------------|
|---17----------------|---15----------------|
|---------------------|---------------------|


          ~~~~~~~              ~~~~~~~
  E  E E  E  +Q   Q    E  E E  E  +Q   Q
|------8-------------|------8-------------||
|--------11-(11)-----|--------11-(11)-----||
|--------------------|--------------------||
|--------------------|--------------------||
|---10---------------|---10---------------||
|--------------------|--------------------||


   1st - 3rd Verses
    $
    N.C.
            ~~~~~~~               ~~~~~~~
    E  E E  E  +Q   e E   E  E E  E  +Q   e E
||-------8----------8---|------8----------8---|
||o--------11-(11)------|--------11-(11)------|
||----------------------|---------------------|
||----------------------|---------------------|
||o---10----------------|---10----------------|
||----------------------|---------------------|


          ~~~~~~~               ~~~~~~~
  E  E E  E  +Q   e E   E  E E  E  +Q   e E
|------8----------8---|------8----------8----|
|--------11-(11)------|--------11-(11)-------|
|---------------------|----------------------|
|---------------------|----------------------|
|---10----------------|---10-----------------|
|---------------------|----------------------|


           ~~~~~~~               ~~~~~~~
  E  E  E  E  +Q   Q    E  E  E  E  +Q   Q
|------13-------------|------13-------------|
|---------16-(16)-----|---------16-(16)-----|
|---------------------|---------------------|
|---------------------|---------------------|
|---15----------------|---15----------------|
|---------------------|---------------------|


          ~~~~~~~               ~~~~~~~
  E  E E  E  +Q   e E   E  E E  E  +Q   e E
|------8----------8---|------8----------8---|
|--------11-(11)------|--------11-(11)------|
|---------------------|---------------------|
|---------------------|---------------------|
|---10----------------|---10----------------|
|---------------------|---------------------|


           ~~~~~~~               ~~~~~~~
  E  E  E  E  +Q   Q    E  E  E  E  +Q   Q
|------15-------------|------13-------------|
|---------18-(18)-----|---------16-(16)-----|
|-

This Is Love chords – For King And Country

 Artist: For King And Country
 Run Wild, Live Free, Love Strong
Song: This Is Love


Key: D


Intro (x2):  G  ||  Bm A  ||  D 


Verse 1:
        G 
It was like a movie
                Bm 
When I first met you
     A 
The moment moved me
            D 
I still remember
      G 
Your soul of beauty
      Bm A D 
It stole me away, away


Pre-chorus:
 G Bm 
 Richer or poorer, better or worse
 A 
Could we be together
                  D 
Could we make it work
 G Bm 
 If love is patient and if love is kind
 A 
 Oh God, give me a sign

You've got me thinking


Chorus:
 G Bm 
 Oh-oh-oh-oh-oh, oh-oh-oh-oh-oh 
          A 
This is love, this is love
                         D 
This is love that I’m feeling
 G Bm 
 Oh-oh-oh-oh-oh, oh-oh-oh-oh-oh
          A  
This is love, this is love
                   D 
This is love I believe it
      G 
I’ll kiss you only
              Bm 
Darling, I promise
    A D 
To hold you gently and still be the strongest
     G Bm A 
I’m yours completely no matter what comes our way
                                 G  
I’ll love you til the end of my day-ay-ay-ay-ays
         Bm A D 
Til the end of my day-ay-ay-ay-ays


Verse 2:
          G 
Could've never imagined
                 Bm 
We’d find each other
   A D 
A classic romantic of unlikely lovers
      G 
Some kind of magic
                  Bm A D  
How two can turn into one, to one


Pre-chorus 2:
 G Bm 
 For rich or poor, better or worse
 A 
 We’ll be together
                       D 
Yeah, we’ll make it work
 G 
 Love is patient
                 Bm   
I know love is kind
 A                          
 Thank God I saw the sign

You've got me thinking


Chorus:
 G Bm 
 Oh-oh-oh-oh-oh, oh-oh-oh-oh-oh 
          A 
This is love, this is love
                         D 
This is love that I’m feeling
 G Bm 
 Oh-oh-oh-oh-oh, oh-oh-oh-oh-oh
          A  
This is love, this is love
                   D 
This is love I believe it
      G 
I’ll kiss you only
              Bm 
Darling, I promise
    A D 
To hold you gently and still be the strongest
     G Bm A 
I’m yours completely no matter what comes our way
                                 G  
I’ll love you til the end of my day-ay-ay-ay-ays
         Bm A                 
Til the end of my day-ay-ay-ay-ays
         D G  
Til the end of my day-ay-ay-ay-ays
         Bm A D 
Til the end of my day-ay-ay-ay-ays


Bridge:
 G Bm 
Run, run, run, run with me
    A D 
As one, one, one, we will dream
      G Bm 
Of a beautiful love mystery
    A F#m 
So run, run, run, run with me


Chorus:
N.C
Oh-oh-oh-oh-oh, oh-oh-oh-oh-oh 

This is love, this is love

This is love that I’m feeling
 G Bm 
 Oh-oh-oh-oh-oh, oh-oh-oh-oh-oh
          A  
This is love, this is love
                   D 
This is love I believe it
      G 
I’ll kiss you only
        

Long Live chords – For King And Country V2

 Artist: For King And Country
 Run Wild, Live Free, Love Strong
Song: Long Live


Key: F# | Capo: 2


Intro:  E  |||  A  |||  E  |||  A 


Verse 1:
           E A 
If you’re playing that drum but you got no rhythm
             E A 
If you’re a little out of key but you’re always singing
           C#m B 
If you’re so carefree but so not careless
 A                                       
Such a wreck, but ain't love wreck-less
  C#m B A  
Oh, if you’re listening I hope you hear this


Chorus:
                        E 
Long live the young at heart
 A C#m 
You know who you are
           B 
With your spirit burning
 E A 
Take a risk and take a chance
       C#m 
Carry on
 B E 
Long live the soul set free
 A C#m 
Don't be afraid to dream
           B 
While the world’s still turning
 E A 
Every moment, make it happen
      C#m 
With two left feet
 B 
Keep on dancing



 E 
Beat by beat, breath by breath
         E 
Walking hand in hand, step by step



Verse 2:
        E A 
With a drop of faith and childlike wonder
         E A 
You can weather the lighting, you can brave the thunder
 C#m B 
No road map, but keep on running
    A                              
No parachute, but keep on jumping
  C#m B A 
Oh, I think you might be onto something


Chorus


 E 
Beat by beat, breath by breath
         E 
Walking hand in hand, step by step
 A 
Here and now, day by day
       A 
Won’t let this memory slip away


Chorus:
                        E 
Long live the young at heart

You know who you are
          
With your spirit burning
 E A 
Take a risk and take a chance
       C#m 
Carry on
 B E 
Long live the soul set free
 A C#m 
Don't be afraid to dream
           B 
While the world’s still turning
 E A 
Every moment, make it happen
      C#m 
With two left feet
 B E A C#m B 
Keep on dancing
 E A 
Every moment, make it happen
      C#m 
With two left feet
 B               
Keep on dancing


Ending:
 E 
Beat by beat, breath by breath
         E 
Walking hand in hand, step by step
N.C.
Beat by beat, breath by breath
        
Walking hand in hand, step by step

Its Not Over Yet chords – For King And Country

 (No capo)


[Verse 1:]
 Em G 
They are inside your head
 G 
You got a voice that says
 C 
You won't get past this one
 C 
You won't win your freedom

             G 
It's like a constant war
         G 
And you want to settle that score
     C 
But you're bruised and beaten
         C 
And you feel defeated

[Pre-Chorus:]
 G Em D G 
This goes out to the heaviest heart

[Chorus:]
 C 
Oh, to everyone who's hit their limit
 G 
It's not over yet
 D 
It's not over ye-et
 C 
And even when you think you're finished
 G 
It's not over yet
 D 
It's not over ye-et
 C 
Keep on fighting
 Em 
Out of the dark
 D 
Into the light
 C 
It's not over
 C 
Hope is rising
 G 
Never give in
 D 
Never give up
 C 
It's not over
 C 
Yea-et-et, woah
 G D C 
Yea-et-et, woah

[Verse 2:]
 C 
Oh, game set match
 G D C 
It's time to put it in your past, oh
 C 
Feel the winter leavin'
      G D 
It's redemption season
 C 
Long live the young at heart (Here we are)
 C 
Cheers to a brand new start (Here we are)
 C Em 
We're revived and breathing
 G D 
To live a life of freedom


[Chorus:]
 C 
Oh, to everyone who's hit their limit
 G 
It's not over yet
 D 
It's not over ye-et
 C 
And even when you think you're finished
 G 
It's not over yet
 D 
It's not over ye-et
 C 
Keep on fighting
 Em 
Out of the dark
 D 
Into the light
 C 
It's not over
 C 
Hope is rising
 G 
Never give in
 D 
Never give up
 C 
It's not over
 C 
Yea-et-et, woah
 G D C 
Yea-et-et, woah

[Bridge:]
 G 
Life is a race we run
 G 
So run till the race is won
 C 
Don't you ever give up (Here we are)
 Em D 
Oh no never give up (Here we are)
 G 
Life is a race we run
 G 
So run till the race is won
 C 
Don't you ever give up (Here we are)
 Em D 
Oh no never give up (Here we are)

 C 
Oh, to everyone who's hit their limit
 C 
And even when you think you're finished

[Chorus:]
 C 
Oh, to everyone who's hit their limit
 G 
It's not over yet
 D 
It's not over ye-et
 C 
And even when you think you're finished
 G 
It's not over yet
 D 
It's not over ye-et
 C 
Keep on fighting
 Em 
Out of the dark
 D 
Into the light
 C 
It's not over
 C 
Hope is rising
 G 
Never give in
 D 
Never give up
 C 
It's not over
 C 
Yea-et-et, woah
 G D C 
Yea-et-et, woah

Run Wild chords – For King And Country

 Artist: For King And Country
 Run Wild, Live Free, Love Strong
Song: Run Wild


Key: Gm | Capo: 3


Intro:  C D A Cadd9  -  D C D Em Em Bm7 D A Bm7 
Are the walls to lock you in or to keep others away
            Em Bm7 D Em A     
And if the doors were to be opened would you leave or would you stay
     Em Bm7 D A Bm7 
The comfort of your misery you cherish dearly, you cherish dearly
         Em            
And you haven't started dreaming
  Bm7 D Em A 
‘cause you’re still fast asleep, you’re fast asleep

                      C 
But don't you want to
     D Em D/F# G        
Run wild, live free
 D Em 
Love strong, you and me


          Em Bm7 D A Bm7  
You’re a lion full of power who forgot how to roar
           Em Bm7 D Em A  
You’re an eagle full of beauty but you can’t seem to soar
            Em Bm7 D A Bm7 
Will you return to the garden where we were first made whole
          Em Bm7 D Em A  
Will you turn to the One who can liberate your soul


                      C 
But don't you want to
     D Em D/F# G        
Run wild, live free
 D A 
Love strong, you and me
 C D Em D/F# G 
 Run wild, live free
 D Em 
Love strong


          Em D 
To every soul locked in a cage
        Am C D 
In the prison of your past mistakes
     Em D 
No, there's no time left to waste
               A 
Yeah, you can make your great escape
              C D Em D/F#   
We’re made to run wild, run wild, run wild
       D C D Em D/F#  
We’re made to run wild, run wild, run wild
       D 
We're made to



 Em Bm7 D                                
  Run forest, all depends what direction
 A Bm7          
 Some people run from fear, some from their own reflection
             Em Bm7 D 
Some people run their mouth, some people run their house
                                  Em 
Ruling with the heart of a tyrant
                                   A 
Some people run their block, bust shot with a 4-4-5 and
              Em Bm7 
That’s the environment, how we were raised
 D 
Living like lions but trapped in a cage
 A Bm7 
Back to a mine gold day with the blood of a king but the heart of a slave
                 C 
Don’t you wanna run


     D Em D/F# G        
Run wild, live free
 D A 
Love strong, you and me
 C D Em D/F# G 
 Run wild, live free
 D Em 
Love strong


          Em D 
To every soul locked in a cage
        Am C D 
In the prison of your past mistakes
     <span

Shoulders chords – For King And Country V3

 Artist: For King And Country
 Run Wild, Live Free, Love Strong
Song: Shoulders


Key: Eb | Capo: 3



Intro:  C  |||  G  ||  G/B F  ||  G Dm  ||  G 


Verse 1:
         C 
When confusion's my companion
        G 
And despair holds me for ransom
 G/B F 
I will feel no fear
   G Dm G 
I know that You are near


Verse 2:
          C 
When I'm caught deep in the valley
      G 
With chaos for my company
      G/B F 
I'll find my comfort here
          G Dm G 
‘Cause I know that You are near


Chorus:
    C 
My help comes from You
                    G 
You're right here, pulling me through
     Em Am F    
You carry my weakness, my sickness, my brokenness
             G6 G Gsus G 
All on Your shoul - ders, Your shoul - ders
    C 
My help comes from You
            G 
You are my rest, my rescue
   Em Am 
I don't have to see to believe
             F G6 G 
That You're lifting me up on Your shoul - ders
      Gsus G 
Your shoul - ders


Verse 3:
     C 
You mend what once was shattered
         G 
And You turn my tears to laughter
         G/B F 
Your forgiveness is my fortress
         G Dm G 
Oh Your mercy is relentless


Chorus


Tag:
     F 
My help is from You
  Dm 
(Don't have to see it to believe it)
     Am 
My help is from You
  C/E  
(Don't have to see it, ‘cause I know, ‘cause I know it's true)
     F 
My help is from You
  Dm 
(Don't have to see it to believe it)
     Am 
My help is from You
  G                                                        
(Don't have to see it, ‘cause I know, ‘cause I know it's true)


Chorus


Tag (x2) [End with a C]

Musicians Like Gamblers Like Drunks Like Me chords – To Kill A King

 Artist: To Kill A King
Song: Musicians Like Gamblers Like Me
Album To Kill A King



Capo on the 6th fret



‚Riff’ in the verse in-between the G and the A7sus4

e|--------------|
B|--------------|
G|--------------|
D|---------2----|
A|---0h2--------|
E|--------------|





Verse

 G A7sus4 G 
Hold, drip fair into your blood
 A7sus4 G 
  Just enough to keep you going
 A7sus4 Em 
  To keep your head in the games we'd played
          C 
Like its all for fun,
           G 
Than it's all to be won
                 C 
Forgetting it's all for keeps


     G A7sus4 G 
And pain, some of your loses against your game
 A7sus4 G 
  You add them up, they're about the same
 A7sus4 Em 
  Just enough to roll the dice again
      C 
For another day lay
      G 
down all the tears 
            C 
Though the house always wins



Chorus:

     G 
And you should be,
           D 
Somewhere else you see
      C A7sus4 
I'm dying, a dying breed
     G 
And you should be, 
           D 
Somewhere else you see
     C A7sus4 
I'm dying, a dying breed


 G A7sus4 G A7sus4 


Verse:

     G A7sus4 G 
And love, the curve ball caught by us
 A7sus4 G 
  The perfect mystery not to solve
 A7sus4 Em 
  The puppet strings that hold us up to stand,
    C 
to go to work
        G 
Find a desk to sit behind
     C 
and all that shit



Chorus:


     G 
But you should be,
           D 
Somewhere else you see
      C A7sus4 
I'm dying, a dying breed
     G 
And you should be, 
           D 
Somewhere else you see
     C A7sus4 
I'm dying, a dying breed


 G 
You should be,
           D 
somewhere else you see
          C 
But you won't,
                 A7sus4 
You're stuck by me 


End on  G

King Of Fools chords – Dwight Yoakam

 King of Fools - Dwight Yoakam
This Time 

Intro: /  E7 E7  /  A A  /
        E7 E7 
As you look into my eyes and tell those empty lies
         A A 
I'll pretend they're true, 'cause that's what I do
        E7 E7 
As you sit and hold my hand and smile at other men
         A A 
I'll pretend I'm blind, 'cause I'm just that kind

 C# F#m 
   I'm the king of fools and I'll always reign
 B E7 
   Over loneliness and pain
 C# F#m 
   The king of fools wears his crown
 B E7 
   Wherever misery can be found

Repeat Intro: /  E7 E7  /  A A  /

 C# F#m 
   I'm the king of fools and I'll always reign
 B E7 
   Over loneliness and pain
 C# F#m 
   The king of fools wears his crown
 B E7 
   Wherever misery can be found

        E7 E7 
As you walk away with him and I lose in love again
         A A 
I'll pretend to see, that you're still with me
          E7 E7 
But I'll be there all alone, like a king upon a throne
        E7 A 
'Cause I'm the king of fools
      E7 A 
Yes, I'm the king of fools
 
Solo-Fadeout: /  E7 E7  /  A A  /  E7 E7  /  A A  /  E7 E7  /  A A  /

Intro/Solo:

        E7 E7 A A           (repeat)
e|----------------------0----------------------------------|
B|-0-2-3-0-3-0----0-2-3---3-0------------------------------|
G|-------------1--------------1-----1-2/4\2----1-2/4\2-----|
D|--------------------------------4----------4-------------|
A|---------------------------------------------------------|
E|---------------------------------------------------------|

This may be easier to play if you transpose down two half-steps and use capo 2, so A is now G at capo 2, etc.

Come Thou Almighty King chords – Hymnal

 Come, Thou Almighty King 
Words – Anonymous (Italian Hymn)
Music – Felice De Giardini, 1716-1796

 Am:x02210
  C:x32010
  D:xx0232
 D7:xx0212
  G:320003
G/B:x2000x


Verse 1:

 G D7 G  
Come, Thou Almighty King
 G C G/B D G D  
Help us Thy Name to  sing; help us to praise
 D G D G  
Father all glorious, O’er all victorious
 G C G Am G/B D G  
Come and reign ov – er us, An - cient of Days

Verse 2:
Come, Thou Incarnate Word
Gird on Thy mighty sword; our prayer attend
Come, and Thy people bless, and give Thy Word success
Spirit of holiness, on us descend

Verse 3:
Come, Holy Comforter
Thy sacred witness bear in this glad hour
Thou, Who almighty art, now rule in ev’ry heart
And ne'er from us depart, Spirit of pow’r

Verse 4:
To Thee, great One in Three
The highest praises be, hence, evermore
His sovereign majesty; may we in glory see
And to eternity, love and adore

Muckraker chords – King Gizzard And The Lizard Wizard

 King Gizzard & The Lizard Wizard - Muckraker
song: https://www.youtube.com/watch?v=s2PjdldHnko

INTRO
e|---------------------------------|
B|---------------------------------|
G|---------------------------------|
D|---------------------------------|
A|-2-2-2-2-0-0-0-0-----------------|
E|-----------------4-4-4-4-2-2-2-2-|

    E F# E F#     
e|-------------------------|
B|-4-----2-----4-----2-----| this riff continues
G|----4-----4-----4-----4--| while the main riff
D|-------------------------| is played
A|-------------------------|
E|-------------------------|

MAIN RIFF
    B A G#m F# E F# E F# 
e|-----------------------------------------------------------------|
B|-----------------------------------------------------------------|
G|-----------------------------------------------------------------|
D|-----------------------------------------------------------------|
A|-2-2-2-2-0-0-0-0-------------------------------------------------|
E|-----------------4-4-4-4-2-2-2-2-0-0-0-0-2-2-2-2-0-0-0-0-2-2-2-2-|
ooh ooh ooh ooh
ooh ooh
ooh ooh

VERSE 1
 B 
Clear the cobwebs off my brain
 E F# E F# 
Ants have caved, it's not that great
 B 
Piss and shit uphold the flow
      E F# E F# 
I'll rake them up, it's just my luck

CHORUS
    B A G#m F# E F# E F# 
e|-----------------------------------------------------------------|
B|-----------------------------------------------------------------|
G|-----------------------------------------------------------------|
D|-----------------------------------------------------------------|
A|-2-2-2-2-0-0-0-0-------------------------------------------------|
E|-----------------4-4-4-4-2-2-2-2-0-0-0-0-2-2-2-2-0-0-0-0-2-2-2-2-|
Oh no
Whoo hoo
oh no, oh no, oh no, oh no

BRIDGE
 B 
Aah, ahah aah, ahah ah ah aah
Aah, ahah aah, ahah ah ah aah
 E 
Aah, ahah aah, ahah ah ah aah
 B 
Aah, ahah aah, ahah ah ah aah
     F# E 
Muckraker, oh muckraker
 A B        \ 2x
  Muckraker   /

MAIN RIFF (2X)
    B A G#m F# E F# E F# 
e|-----------------------------------------------------------------|
B|-----------------------------------------------------------------|
G|-----------------------------------------------------------------|
D|-----------------------------------------------------------------|
A|-2-2-2-2-0-0-0-0-------------------------------------------------|
E|-----------------4-4-4-4-2-2-2-2-0-0-0-0-2-2-2-2-0-0-0-0-2-2-2-2-|
ooh ooh ooh ooh
ooh ooh
ooh ooh

VERSE 2 (same as verse 1)
 B 
Clear the cobwebs off my brain, but
 E F# E F# 
Ants have caves, it's not that great
 B 
Piss and shit uphold the flow
      E F# E F# 
I'll rake them up, it's just my luck

CHORUS (2x)
    B A G#m F# E F# E F# 
e|-----------------------------------------------------------------|
B|-----------------------------------------------------------------|
G|-----------------------------------------------------------------|
D|-----------------------------------------------------------------|
A|-2-2-2-2-0-0-0-0-------------------------------------------------|
E|-----------------4-4-4-4-2-2-2-2-0-0-0-0-2-2-2-2-0-0-0-0-2-2-2-2-|
Oh no
Whoo hoo
oh no, oh no, oh no, oh no

BRIDGE
 B 
Aah, ahah aah, ahah ah ah aah
A

Bling Confessions Of A King chords – Killers

 Bling (confessions of a king) – The killers


Intro : 

 D G A F#m G 
When I offer you survival
You say it’s hard enough to live
It’s not so bad, It’s not so bad
How do you know…
 Bm A G   
…that you’re right?


 Bm G E Bm 
I work on the roadside
In the land of the free ride
I can’t hold it any longer
The sun is beating down my neck


 Bm G E Bm 
So I ran with the devil
Left a trail of excuses
Like a stone on the water
The elements decide my fate

          G A  
Watch it go… (Bling)


 D F#m 
When I offer you survival
 G 
You say it’s hard enough to live
 A F#m   
Don’t tell me that it’s over
       G 
Stand up, poor and tired, but more than this

 A F#m 
How do you know that you’re right
               G 
If you’re not nervous anymore?
 A F#m G  
It’s not so bad, it’s not so bad


 Bm G E Bm 
I feel my vision slipping out of focus
But I’m pushing on for that horizon
I’m pushing on
Now I’ve got that blowin’ wind against my face


 Bm G E Bm 
So you sling rocks at the riptide
Am I wrong or am I right?
I hit the bottom with a hook- quite strange
I get my glory in the desert rain

          G A  
Watch it go.. (when I offer you survival) Bling


 D F#m G 
When I offer you survival
You say it’s hard enough to live
 A F#m G 
I’ll tell you when it’s over
Shut up- poor and tired, but more than this

 A F#m G 
How do you know that you’re right
If you’re not nervous anymore?
 A F#m G 
It’s not so bad, it’s not so bad


 D 
Higher and higher, we’re gonna take it
 D 
Down to the wire, we’re gonna make it
 G A Bm F#m 
Out of the fire
 G A 
Higher and higher

 D 
Higher and higher, we’re gonna take it
 D 
Down to the wire, we’re gonna make it
 G A Bm F#m 
Out of the fire
 G A 
Higher and higher

 D  
Higher and higher, we’re gonna take it
 Gmaj7 
Down to the wire, we’re gonna make it
 G A Bm F#m 
Out whoa oh oh
 G A D  
Higher and Higher


 G A Bm  
It ain’t hard to hold
         F#m G 
When it shines like gold
          A D   
You’ll remember me

King For A Day intro Tabs – Pierce The Veil V2

 -------------------------------------------------------------------------------
                             King for a Day - Pierce the Veil
-------------------------------------------------------------------------------
:


Tuning: Drop B
Okay so there are two parts to this intro...one of them is this and keep in mind the 
intro is kinda slow,
Also...Do not use a pick for this...use your thumb and index finger

C#|---------------------------------------------------------------------------|
G#|6666666666666666-5555555555555555------------------------------------------|
 E|---------------------------------------------------------------------------|
 B|---------------------------------------------------------------------------|
F#|5555555555555555-4444444444444444------------------------------------------|
 B|---------------------------------------------------------------------------|

The other part (lead part) goes like this...once again keep in mind that it is slow

C#|---------------------------------------------------------------------------|
G#|--------8-10-11-10-9-8---10-9-8---11---------------------------------------|
 E|-7-9-10----------------6--------6----10------------------------------------|
 B|---------------------------------------------------------------------------|
F#|---------------------------------------------------------------------------|
 B|---------------------------------------------------------------------------|


************************************

| /   slide up
| \   slide down
| h   hammer-on
| p   pull-off
| ~   vibrato
| +   harmonic
| x   Mute note
| b   Bend
| pb  Pre-bend
| br  Bend release
| pbr Pre-bend release
| brb Bend release bend

************************************