Tag: kings

Suburban Kings chords – Tom Delonge

 : Fabio BlenderBR

 - Give your rating and help others users to find the best versions of the songs -


 - Intro

e|---------------------------------|
B|-8-8-8-8-8-8-8-8-7-7-7-7-7-7-7---|
G|---------------------------------|
D|---------------------------------|     2x
A|---------------------------------|
E|---------------------------------|

 G F#m    (2x)


 - Verse

 G F#m 
Daddy's gonna come to meet us
                            G 
Every guy that wished and fell 
                         F#m 
I got a brand new apartment
                             G 
On the other side of Poway Hill
                         F#m 
Every kid is dreading Monday
                      G 
Ice is on my window sill
                            F#m 
Waiting for a brand new skateboard
                            G 
I'm waiting for a bit of skill
                          F#m 
Tommy want a punk-rock weekend
                        G 
And Tommy need a new guitar
                             F#m 
Tommy ain't a high school drop out
                          
Who kicked out of high school


 - Pre Chorus
 
       C 
I'm holding my head is gonna blow up my mind
Wake shot up these words
I've got quite a bit grey
Like they were yesterday
We were on our way
When the songs do their thing


 - Chorus
           G D                      
Suburban kings they will die but will rise up again
             Em D 
Like little kids they will fight til they all get their way
               G D 
And make the most of themselves but we sound the alarm
             Em D 
Like they jumped straight out of Hell a freaking hydrogen bomb bombs away


 - Intro

 G F#m 


 - Verse 2

 G F#m 
You gotta get the rules and break them
                               G 
This house is getting out of hand
                            F#m 
Mother's got a thing for praying
                           G 
But God is gonna hate my band
                          F#m 
Tommy wants a life of purpose
                           G 
Tommy has some dreams to plan
                         F#m 
I drive to that shit apartment

I'm gonna build a punk-rock band


 - Pre Chorus

      C 
I'm holding my head is gonna blow up my mind
Wake shot up these words
I've got quite a bit grey
Like they were yesterday
We were on our way
When the ships at land


 - Chorus
           G D                      
Suburban kings they will die but will rise up again
             Em D 
Like little kids they will fight til they all get their way
               G D 
And make the most of themselves but we sound the alarm
             Em D 
Like they jumped straight out of Hell a freaking hydrogen bomb bombs away

          G D 
Suburban kings they will die but will rise up one day
             Em D 
With steady wings they will fly from up and out of their cage
              G D 
We show the worst of themselves we must sound the alarm
                   Em D 
These kids, they jumped out of Hell a freaking hydrogen bomb bombs away


 - Bridge:

 G F#m     (5x)


 - Chorus
           G D                      
Suburban kings they will die but will rise up again
             Em D 
Like little kids they will fight til they all get their way
               G D 
And make the most of thems

Kings And Queens intro Tabs by Beau Monga

 -------------------------------------------------------------------------------
                             Kings and Queens - Beau Monga
-------------------------------------------------------------------------------
Youtube video: https://www.youtube.com/watch?v=qRtK8cTBO-I

Tuning: Standard

This is Beau Monga's original Kings and Queens which he sang at judges retreat in X Factor NZ :D He made it
to the live shows so please vote for him!!
This tab is repeated over and over :)

e|---------------------------------------------------------------------------|
B|---------------------------------------------------------------------------|
G|---------------------------------------------------------------------------|
D|---1--1----1--------------------------------1------------------------------|
A|--------------4--4---1--2--2---2--1--1---4---------------------------------|
E|---------------------------------------------------------------------------|

Homesick chords – Kings Of Convenience V2

 Capo 1 - Standard
(Interludes are pretty basic in continuing the basic pattern:  C ,  G ,  F ,  Am  or improv.)

      C G Am7 
I'll lose some sales and my boss won't be happy,
       F Am C G  
but I can't stop listening to the sound
    Dm F  
of two soft voices
 Am C 
blended in perfection
                        G Am 
from the reels of this record that I've found.

 C G Am7 F 
Every day there's a boy in the mirror asking me...
      Am C G       
What are you doing here?
 Dm F C 
Finding all my previous motives
                 G Am  
growing increasingly unclear.

      C G Am7                
I've traveled far and I've burned all the bridges
   F Am C G 
I believed as soon as I hit land
 Dm F C          
all the other options held before me,
                     G Am 
would wither in the light of my plan.

         C G Am7 
So I'll lose some sales and my boss won't be happy,
             F Am C G 
but there's only one thing on my mind
 Dm F C    
searching boxes underneath the counter,
                       G Am 
on a chance that on a tape I'd find...

    F Am C 
a song for 
     Dm Am 
someone who needs somewhere
    F C      
to long for.

     Am  
Homesick.
         C G Am 
Because I no longer know 
       F C 
where home is.

Stone Walls chords – We The Kings

 We The Kings- Stone Walls off of their acoustic album Stripped

Capo 1


     D A 
The stars fade, the earth shakes
     Em Bm A 
The poison's on your tongue
     D A 
The lost plans, the last dance
    Em Bm A 
oh God what have you done


 G A 
I can see the fever spreading, I can feel the faith is gone
 G 
Even though it's all you've wanted


 D A Em Bm A 
Stone walls will fall, young hearts will break
     A G A G D A Bm 
for so long we're so strong, we shine until we fade
     G 
but don't stop burning


    D A 
On gold streets, the dust sleeps
     Em Bm A 
for you the flames still dance
     D A 
The skies changed, a new day
     Em Bm A 
are these the same two hands


 G A 
I can see the fever breaking, I can feel the faith come home
 G 
Everything you've ever wanted


 D A Em Bm A 
Stone walls will fall, young hearts will break
     A G A G D A Bm  
for so long we're so strong, we shine until we fade


        D A Em Bm A 
We are all we are, we are all we are
        D A Em Bm A 
We are all we are, we are, who we are


    Em Bm A 
We are, who we are


 D A 
Stone walls will fall (stone walls will fall)
 Em Bm A 
Young hearts will break (Young hearts will fall)
 A G A G 
So long, we're so strong
 D A Bm G 
we shine until we fade (but don't stop burning)


        D A 
we are all we are (don't stop burning)
        Em Bm A 
we are all we are (don't stop burning)
        D A 
we are all we are (don't stop burning)
    Em Bm A 
we are, who we are
(x2)

 Bm G 
Don't stop burning


So yeah. This is my version. This is my very first tab! Hope you all like it. WTK is awesome!!!

Thieves And Kings Tabs by The Peach Kings

 The Peach Kings - Thieves and Kings
 Langustyn

you may know from Boardwalk Empire S04 intro/previously

my first tab :) pls rate and make corrections...

intro/main riff

e----------------------------------------|
B----------------------------------------|
G----------------------------------------|
D----------------------------------------|
A---777-5-7------0-777-5-5-7-------------|
E-0---------5s3--------------5-0-4-0-3---|

bridge

e-------------------------------------------------------|
B-------------------------------------------------------|
G-------------------------------------------------------|
D-----------------5-------------------------------5-----|
A-5-77-5-777-5-775----5-777-5-777-5-7-7-5-7-5-7-5---7---|
E-0-------------------0-000-0-000-0-0-0-----------------|

verse chords

 E7#9 G A E E7#9

 E7#9 G A E

listen and watch vid for rhytm and strokes...


 E7#9      G       A       E
e-----  e--3--  e--5--  e-----|
B--8--  B--3--  B--5--  B-----|
G--7--  G--4--  G--6--  G--1--|
D--6--  D--5--  D--7--  D--2--|
A--7--  A--5--  A--7--  A--2--|
E--0--  E--3--  E--5--  E--0--|

Fans Tabs by Kings Of Leon V5

 Kings of Leon
FANS
 : Mrhamster

Guitar 1 (Acoustic)
VERSE And CHORUS
 
    E  A          B          A
e|--0--0-0-0-0-0--0-0-0-0-0--0--|
B|--0--0-0-0-0-0--0-0-0-0-0--0--|
G|--1--6-6-6-6-6--8-8-8-8-8--6--|
D|--2--7-7-7-7-7--9-9-9-9-9--7--|
A|--2--7-7-7-7-7--9-9-9-9-9--7--|
E|--0--0-0-0-0-0--0-0-0-0-0--0--|

Guitar 2 (Electric)
(Heavy reverb)

INTRO 
Hold for feedback (Also one in first verse 0:44)

    E
e|--4--|
B|--5--|
G|--4--|
D|--6--|
A|--7--|
E|--x--|

CHORUS

    E   A      B       A
e|--4---9------11------9------|
B|--5---10-----12------10-----|
G|--4---9--x5--11--x5--9------|
D|--6---11-----13------11-----|
A|--x---x------x-------x------|
E|--x---x------x-------x------|


Solo

e|------------------------------------------------|
B|-----------10----------10----------10--12-------|
G|--11s13-13----13-13-13----13-13-13-----14bu16---|
D|------------------------------------------------|
A|------------------------------------------------|
E|------------------------------------------------|

e|------------------------------------------------|
B|--------0---------------------------------------|
G|--4-4s6---x4--(or)--4-4s6-4--x4-----------------|
D|------------------------------------------------|
A|------------------------------------------------|
E|------------------------------------------------|

e|------------------------------------------------|
B|-----------10----------10----------10--12-------|
G|--11s13-13----13-13-13----13-13-13-----14bu16---|
D|------------------------------------------------|
A|------------------------------------------------|
E|------------------------------------------------|

e|------------------------------------------------------12-|
B|-----------14----------14----------14----------14-----12-|
G|--14s16-16----16-16-16----16-16-16----16-16-16----16--13-|
D|---------------------------------------------------------|
A|---------------------------------------------------------|
E|---------------------------------------------------------|

*Legend*
S Slide
Bu Bend up 

Fans Tabs by Kings Of Leon V4

 Kings of Leon
FANS
 : Mrhamster

Guitar 1 (Acoustic)
VERSE And CHORUS
 
    E  A          B          A
e|--0--0-0-0-0-0--0-0-0-0-0--0--|
B|--0--0-0-0-0-0--0-0-0-0-0--0--|
G|--1--6-6-6-6-6--8-8-8-8-8--6--|
D|--2--7-7-7-7-7--9-9-9-9-9--7--|
A|--2--7-7-7-7-7--9-9-9-9-9--7--|
E|--0--0-0-0-0-0--0-0-0-0-0--0--|

Guitar 2 (Electric)
(Heavy reverb)

INTRO 
Hold for feedback (Also one in first verse 0:44)

    E
e|--4--|
B|--5--|
G|--4--|
D|--6--|
A|--7--|
E|--x--|

CHORUS

    E   A      B       A
e|--4---9------11------9------|
B|--5---10-----12------10-----|
G|--4---9--x5--11--x5--9------|
D|--6---11-----13------11-----|
A|--x---x------x-------x------|
E|--x---x------x-------x------|


Solo

e|------------------------------------------------|
B|-----------10----------10----------10--12-------|
G|--11s13-13----13-13-13----13-13-13-----14bu16---|
D|------------------------------------------------|
A|------------------------------------------------|
E|------------------------------------------------|

e|------------------------------------------------|
B|--------0---------------------------------------|
G|--4-4s6---x4--(or)--4-4s6-4--x4-----------------|
D|------------------------------------------------|
A|------------------------------------------------|
E|------------------------------------------------|

e|------------------------------------------------|
B|-----------10----------10----------10--12-------|
G|--11s13-13----13-13-13----13-13-13-----14bu16---|
D|------------------------------------------------|
A|------------------------------------------------|
E|------------------------------------------------|

e|------------------------------------------------------12-|
B|-----------14----------14----------14----------14-----12-|
G|--14s16-16----16-16-16----16-16-16----16-16-16----16--13-|
D|---------------------------------------------------------|
A|---------------------------------------------------------|
E|---------------------------------------------------------|


*Legend*
S Slide
Bu Bend Up

Kings Song chords – Jim Croce

                                                 King's Song                             Jim Croce



    C Em Am   
He struggled so hard to be king
 Dm / Dm7 G 
Working night and day
 C Em Am         
Dreaming of only one thing
 Dm / Dm7 G      
Never a holiday
 F C 
Somewhere along the way
 F Dm G7     
He forgot she was only a girl
         C Em          
Now his kingdom has fallen
          F Dm Bb G         
And it's really quite a tragic tale
       C Em Am          
Cause he built a castle to harbor his queen
         F C G          
But the queen claimed he built her a jail


     C Em Am 
He struggled so hard to be king
 Dm / Dm7 G 
He wanted everything
    C Em Am 
He built her a house by the sea
 Dm / Dm7 G 
Just to keep her in
 F C 
Somewhere along the way
 F Bb G 
He forgot she needed a friend
         C Em 
Now his kingdom has fallen
           F Dm Bb G 
And it's really quite a tragic tale
       C Em Am          
Cause he built a castle to harbor his queen
          F C G E7 ,  A               
And the queen claimed he built her a jail


     D G Gm       
It happened so quickly before he could know
          D G D            
She was gone, far gone
 G D      
Far from the castle, the diamonds and things
          Bm C A7           
She had worn to the ball
   G D 
There was a note that she carefully wrote
  Bm C A7 
Signed it best wishes to all

         D F#m Bm 
Oh you struggled so hard to be king
 Em7 A      
Working night and day
 D F#m Bm Em7 A7 
Dreaming of only one thing, never a holiday
 G Gm D 
Somewhere along the way
 G C A D 
You forgot that I needed a man

            D F#m D B7 
When they found him they took him back where he belonged
           Em Em7 Em A 
And his family and friends saw him annually
           D F#m D B 
And they say it's a shame what's become of the king

Kings Of Medicine chords – Placebo V3

 100% correct. Same chords used in the song. Enjoy!



Tuning: Half-step down

C5: 8 10 X X X X
G5: 3 5 X X X X
F5: 1 3 X X X X
E5: 0 2 X X X X
A5: 5 7 X X X X



 C5 
They're picking up pieces of me
 G5 
While they're picking up pieces of you
 F5 
In a bag you will be before the day is over
 C5 
Were you looking for somewhere to be?
 G5 
Were you looking for someone to do?
 F5 
Stupid me to believe that I could trust in stupid you

 E5 F5 
And on the back of my hand
Were directions I could understand
Now that old buzzer Johnnie Walker
Has gone and ruined all our plans
Our best made plans

 C5 G5 
Don't leave me here to pass for time
 A5 E5 
Without a map or road sign
 C5 G5 
Don't leave me here my guiding light
 A5 E5 
'Cause I, I...


 F5 E5 
Wouldn't know where to begin
I ask the Kings of Medicine

 C5 
They're picking up pieces of me
 G5 
While they're picking up pieces of you
 F5 
Lying on ice you will be before the day is over
 C5 
So case and point may be
 G5 
That you never thought it through
 F5 
Stupid me to believe I could depend on stupid you

 E5 F5 
And on the tip of my tongue
Were words that always came out wrong
'Cause they were drowned in Southern Comfort
And left to dry out in the sun
The noon day sun

 C5 G5 
Don't leave me here to pass for time
 A5 E5 
Without a map or road sign
 C5 G5 
Don't leave me here my guiding light
 A5 E5 
'Cause I, I...

 F5 E5 
Wouldn't know where to begin
I ask the Kings of Medicine
But it seems they've lost their powers
Now all I'm left with is the hours

 [Interlude:]   C5 G5 A5 E5   [2X]


 C5 G5 
Don't leave me here to pass for time
 A5 E5 
Without a map or road sign
 C5 G5 
Don't leave me here my guiding light
 A5 E5 
'Cause I, I...

 F5 E5 
Wouldn't know where to begin
I ask the Kings of Medicine
But it seems they've lost their powers
Now all I'm left with is the hours

 C5 G5 A5 E5 
Don't leave me here
Don't leave me here
Oh no

 [Outro:]
 F5 E5 
I wouldn't know where to begin

Coming Back Again Tabs by Kings Of Leon

 Kings of Leon - Coming Back Again

Tuning: Standard

Any corrections/suggestions would be appreciated.


e|-----------------------------------------------------------------|
B|--------4~------------4~-------2----2-2--------------------------|
G|------6-------------6-----------3~---3-4-3-----------------------|
D|----6-------------6----------------------------------------------|
A|-----------------------------------------------------------------|
E|-----------------------------------------------------------------|
 |
 |
e|-----------------------------------------------------------------|
B|-----------------------------------------------------------------|
G|-----------------------------------------------------------------|
D|-----------------------------------------------------------------|
A|---6-4-6-4-6-----6-4-6-4-6-----6-4-6-4-6-----6-4-6-4-6-----------|
E|-----------------------------------------------------------------|
  PM - - - - -     - - - - -     - - - - -     - - - - -



e|-----------------------------------------------------------------|
B|--------4~------------4~-------2-------2-2-----------------------|
G|------6-------------6-----------3~------3-4-3-1------------------|
D|----6-------------6--------------------------4-------------------|
A|-----------------------------------------------------------------|
E|-----------------------------------------------------------------|
 |
 |
e|-----------------------------------------------------------------|
B|-----------------------------------------------------------------|
G|-----------------------------------------------------------------|
D|-----------------------------------------------------------------|
A|---6-4-6-4-6-----6-4-6-4-6-----6-4-6-4-6-----6-4-6-4-6-----------|
E|-----------------------------------------------------------------|
     - - - - -     - - - - -     - - - - -     - - - - -



e|-----------------------------------------------------------------|
B|-----------------------------------------------------------------|
G|-----------------------------------------------------------------|
D|-----------------------------------------------------------------|
A|---6-4-6-4-6-----6-4-6-4-6-----6-4-6-4-6-----6-4-6-4-6-----------|
E|-----------------------------------------------------------------|
x2   - - - - -     - - - - -     - - - - -     - - - - -



e|-------------------7--9--11--------14h16-14h16-14h16-14h16/0-----|
B|-----------------------------------------------------------------|
G|-----------------------------------------------------------------|
D|-----------------------------------------------------------------|
A|-----------------------------------------------------------------|
E|-----------------------------------------------------------------|
 |                  ^  x8  ^
 |
e------------------------------------------------------------------|
B|----4~------4~---------------------------------------------------|
G|----4~------4~----4-4-44-4-4-44-444-4-4-4------------------------|
D|-44-4~--444-4~----4-4-44-4-4-44-444-4-4-4------------------------|
A|-66-6~--666-6~---------------------------------------------------|
E|-66-----666------------------------------------------------------|
                    - - -- - - -- --- - - -



e|-------------------7--9----------19---21-------------------------|
B|---------------------------------16---19-------------------------|
G|-----------------------------------------------------------------|
D|-----------------------------------------------------------------|
A|-----------------------------------------------------------------|
E|-----------------------------------------------------------------|
 |                 ^  x8  ^
 |
e------------------------------------------------------------------|
B|-----4~----------------------------------------------------------|
G|-----4~---------4-4-44-4-4-44-444-4-4-4-------------

Shout Of Kings chords – Praise And Worship

 Intro:  Em D \ F# G Asus4 Cmaj7 D 


VERSE(1)2x: 
 Em D C D 
I give You praise for you deserve it
 Em D C D        
I give You praise for what you've done 
 Em D C D  
I give You praise for you are able 
 Em D C Asus4 
I give You praise 'til I overcome 


CHORUS: 
 Em D/F# G Asus4 
The shout of the king is among us
 Cmaj7 D        
God lives here in our praises
 Em D/F# G Asus4 
The shout of the king is among us
 Am7 Cmaj7   
Praise Him Praise him
 D                         
Praise Him in everything 

Then Play the Intro

VERSE(2):
 Em D C D   
I give You praise when the sun is shining
 Em D C D 
I give You praise in the dark of night 
 Em D C D 
I give You praise when the battle rages
 Em D C Asus4  
I give You praise 'til it works out right 


CHORUS:
 Em D/F# G Asus4  
The shout of the king is among us 
 C D 
God lives here in our praises 
 Em D/F# G Asus4 
The shout of the king is among us
 Am7 Cmaj7  
Praise Him Praise him
 D  
Praise Him in everything 

Play the intro here too.

BRIDGE 4x:
 Am7 G/B C D 
Heaven opens as we sing Your praise
 Am7 G/B C D   
Angels join us as we praise Your name

Play the Chorus 3x. I know 99% right.

Peace Out!

Supersoaker chords – Kings Of Leon V3

 Intro:  A A D D  x2

        A 
My motivation is gone too soon
Good vibrations all over you
                D 
Act like you mean it, you mean it
            A 
You gotta story you never tell
Down in the Delta, they're ringing bells
             D 
I've never seen it, seen it
             A 
Back of my mind, I'm on my way
I see through smiles on every face
            D 
I don't believe it, believe it


           C#m 
`Cause I'm the super soaker, red white and blew `em all away
With the kisses unclean as the words that you say

 A C#m 
I don't mind sentimental girls at times
                  Bm E 
Miss don't walk away, walk away


                 A 
The flags are flying across the plains
I got a secret picking in my brain
          D 
I wanna see you, see you
           A 
Yes, the sign is on my face
I don't know my home
I don't know my place
              D 
I just wanna be there, be there


           C#m 
`Cause I'm the super soaker, red white and blew `em all away
With the kisses unclean as the words that you say


 A C#m 
I don't mind sentimental girls at times
                  Bm E 
Miss don't walk away, walk away
 A C#m 
I don't mind sentimental girls at times
                  Bm E 
Miss don't walk away, ohhhh


Instrumental:  A C#m Bm E A C#m 
I don't mind sentimental girls at times
                Bm E 
I just lay it on the line, on the line


Instrumental:  A C#m Bm E A C#m 
I don't mind sentimental girls at times
                  Bm E 
Miss don't walk away, walk away
 A C#m 
I don't mind sentimental girls at times
                  Bm E A 
Miss don't walk away, oh oh oh

Rule My World Tabs by Kings Of Convenience

 Rule My World by Kings Of Convenience
 Simon Bance, 2012

Based on live recordings and the album version.

This track is a little tricky to recreate with two guitars because on the recorded 
version the melody is played with guitar (third guitar, overdubbed), whereas live it is added 
by the extra musicians playing violin etc.
Here I will try to show you how to play all possible guitar parts.

***Erlend***
Tuning; Standard capo 9

Intro / Main riff

x 0 2 0 1 0

x 5 4 2 0 0

x 5 4 0 3 0

x 5 4 0 0 2

Here is the tablature for the main riff. So that you can see the rhythm.
It is syncopated with heavy palm muting indicated by "x".
But the same rhythm is used through the whole song, so I will generally just give the 
chord shapes for the rest!

|------0-x---x--------0-x---x---|-------0-x---x---------0-x---x---|
|1-----1--------1-----1---------|0------0--------0------0---------|
|0-----0--------0-----0---------|2------2--------2------2---------|
|2-----2--------2-----2---------|4------4--------4------4---------|
|0--------------0---------------|5------5--------5------5---------|
|-------------------------------|---------------------------------|

0 2 0 2 0 0

0 2 0 1 0 0

"Morally..."
x 3 2 0 0 3

x 2 0 0 0 2

x 0 2 0 1 0

repeat the above 3 times and then last time play

x 5 4 0 3 0 (or with the 2nd string unfretted)

for 2 bars.

"To rule my world" Break
This bit is structurally different in the album recorded version but the chords are the same.

x 3 2 0 0 0

x 5 4 0 0 0

"To rule my world.." Chorus (later)
Drlend just plays the main riff, actually, but you have to listen to the version of the 
song that you are trying to follow and adjust certain chords accordingly.
for instance, you might want to play the bottom string open like so ( he does this live)...

x 3 2 0 0 0

x 5 4 0 0 0

0 5 4 0 0 0

0 5 4 0 0 2

The extra harmonies come from the other guitars on the recording and also from the 
string instruments accompanying in the arrangement.

Verse

|------0-x---x--------0-x---x---|-------0-x---x---------0-x---x---|
|1-----1--------1-----1---------|0------0--------0------0---------|
|0-----0--------0-----0---------|2------2--------2------2---------|
|2-----2--------2-----2---------|4------4--------4------4---------|
|0--------------0---------------|5------5--------5------5---------|
|-------------------------------|---------------------------------|

In the album version there is also a finger-picked section at the end...

|--------------0-----------------|--------------------------------|
|----1---------------1-----------|--------------0-----------------|
|----------0-----------------0---|----2-----2---------2-------2---|
|--------2---------------2-------|--------4---------------4-------|
|0-------------------------------|5-------------------------------|
|--------------------------------|--------------------------------|

|--------------0-----------------|--------------2-----------------|
|----3---------------3-----------|---0----------------0-----------|
|----------0-----------------0---|---------0------------------0---|
|--------4---------------4-------|-------4----------------4-------|
|5-------------------------------|5-------------------------------|
|--------------------------------|--------------------------------|

|--------------0-----------------|--------------------------------|
|----1---------------1-----------|--------------0-----------------|
|----------0-----------------0---|----2-----2---------2-------2---|
|--------2---------------2-------|--------4---------------4-------|
|3-------------------------------|5-------------------------------|
|--------------------------------|--------------------------------|

|--------------0-----------------|--------------2-----------------|
|----3---------------3-----------|---0----------------0-----------|
|----------0-----------------0---|---------0

I Like It chords – We The Kings

 Simple Song from `Somewhere Somehow`, four chords, let`s get into it

Verse
pick scratch constantly, play an Amin in time with the drums

Chorus
 A5 C5 
Ohh from the minute you walked in my life
                    G5 F5 
I've never felt so alive cause everything I did was wrong
                           A5 
But everything I do feels right
                             C5 
I love it when you make me laugh
                            G5 
I love it when you make me cry
                             F5 
Cause everything I did was wrong
But everything I do feels right 

Post-Chorus/Bridge
 A5 - C5 - G5 - F5  x2
ohh ohh ohh oh
 then verse, then chorus, then post-chorus/bridge, then chorus, then post-chorus/bridge

I Feel Alive chords – We The Kings

 Check out youtube.com/cylisse

Intro 

 Em - C - G Em C G 
We’re all alone watching shadows on the ceiling
 Em C G 
I've gone numb but I can’t forget the feeling
 Em C G 
And I don’t even know if I can close my eyes
 Em C G 
Don’t want to sleep cause I’m wide and awake and dreaming
 D Em G 
Hold me close and catch your breath now
 D Em G 
I promise not to leave this bed yet

 C G Em D 
Cause I feel alive
 C G D 
I feel alive
  C G Em D 
Cause I feel alive (Oh oh oh oh oh)
     C G D 
I feel alive (Oh oh oh oh oh)
I finally feel alive

 Em C G 
I’m lying here whispering the sweetest nothing
 Em C G 
I feel your heart beating faster than you’re breathing
 Em C G 
And I don’t even know if I can close my eyes
 Em C G 
Don’t want to sleep cause I’m wide awake and dreaming
 D Em G 
Hold me close and catch your breath now
 D Em G 
I promise not to leave this bed yet

                 C G Em D 
Cause I feel alive
 C G D 
I feel alive
  C G Em D 
Cause I feel alive (Oh oh oh oh oh)
         C G D 
I feel alive (Oh oh oh oh oh)

 D Em C G 
There’s a time and a place for you to say what’s next
 D Em C G 
So tell all of the things you dream but never get
 D Em C G 
There’s a time and a place for you to hold your breath
 D Em C G 
So tell me all of the things you thought but never said


 C G Em D 
Cause I feel alive
 C G D 
I feel alive
  C G Em D 
Cause I feel alive (Oh oh oh oh oh)
         C G D 
I feel alive (Oh oh oh oh oh)
         C G Em D 
I finally feel alive
 C G D 
I finally feel alive
                         Em C Em 
I finally feel alive
 Em C G

Rock City intro Tabs by Kings Of Leon V2

 E|-----------------------------------------------------------------------------------------|
B|-------------7-----10---------------------------------------7--8--7--8--7----------------|
G|--9b11----9-----9------9b11----9b11--9b11--7--9--7-----7-------------------9-------------|
D|----------------------------------------------------9-------------------------9--9b11r9--|
A|-----------------------------------------------------------------------------------------|
E|-----------------------------------------------------------------------------------------|



E|---------------------------------------------------------------------------|
B|----------------3---------5-------7----9b10-----------------9b10--7--8--7\-|
G|---------------------------------------------11--7--9--7-------------------|
D|--4--2--4--2/4-------4/5-----5/7-------------------------------------------|
A|---------------------------------------------------------------------------|
E|---------------------------------------------------------------------------|



E|-------------------------------------------------------------------------|
B|--12-----14-----15---------8--------10---------12---------14----15-------|
G|--14b16--16b18--17b19----------------------------------------14----------|
D|------------------------8/9-----9/10------10/12------12/14---------------|
A|-------------------------------------------------------------------------|
E|-------------------------------------------------------------------------|

Kings And Queens chords – 30 Seconds To Mars V5

 30 Seconds To Mars
KINGS AND QUEENS
MTV Unplugged

Tabs by McNet. Please comment. 
Last part of chorus 1 + 2 ("Heaven and Hell") are hard to hear out of the MTV Unplugged video.

Intro: 

 D5  -  Gsus2  (2x)


Verse 1:
          D5 
Into the night
               Gsus2 
Desperate and broken
                D5 
The sound of a fight
            Gsus2 
Father has spoken
 D5 
ohhhh (2x)


Chorus 1:
             D5 Em7 G5 
We were the kings and queens of promise
             D5 Em7 G5    
We were the victims of ourselves
           D5 Em7 G5 
Maybe the children of a lesser God
         D5 Em7 G5 
Between Heaven and Hell
            D5 
Heaven and Hell

 D5  -  Gsus2 


Verse 2:
           D5 
Into your lives
             Caad9     G5 
Hopeless and taken
                  D5 
We stole our new lives
                  Caad9     G5 
Through blood and pain
      D5 Cadd9 G5 
In defense of our dreams
      D5 Cadd9 G5 
In defense of our dreams


Chorus 2:
             D5 Em7 G5 
We were the kings and queens of promise
             D5 Em7 G5     
We were the victims of ourselves
           D5 Em7 G5 
Maybe the children of a lesser God
         D5 Em7 G5 
Between Heaven and Hell
   D5 G5 
Heaven and Hell


Interlude: 

 G5  -  Em7  -  D5  -  D/F# 


Bridge:
      G5 Em7 D5 D/F# 
The age of man is o--ver
   G5 Em7 D5 
A darkness comes and all
       G5 Em7 
These lessons that 
    D5 D/F# 
we learned here
      G5 Em7 D5 
Have only just begun


Chorus 3:
             D5 Em7 G5 
We were the kings and queens of promise
             D5 Em7 G5     
We were the victims of ourselves
           D5 Em7 G5 
Maybe the children of a lesser God
         D5 Em7 G5 
Between Heaven and Hell


Chorus 4:
            D5 Em7 G5 
We are the Kings
            D5 Em7 G5 
We are the Queens
            D5 Em7 G5 
We are the Kings
            D5 Em7 G5 
We are the Queens


Outro: Children sings
 D5  -  Gsus2  (with variations, 4x)
ohhhhh

We Belong As One chords – Capital Kings

 Intro:  Em C D A  (2x)

                    Em C 
I'm living for a time of change
                               D A 
I'm living for what there is to gain
                           Em C 
With nothing standing in my way
                          D 
I will never go astray
              Em C 
The future is a beautiful sight
                                            D A 
When you can turn the darkness into light
                                 Em C 
There's no more living in black and white
                              D 
When you see what I see

           Em 
We belong as one
 C 
We belong as one
 D A 
When all is said and all is done
         Em 
We belong as one
 C 
We belong as one
 D A 
(We belong as one, Following the Son)



           Em 
We belong as one
 C 
We belong as one
 D A 
When all is said and all is done
         Em 
We belong as one
 C 
We belong as one
 D A 
(We belong as one, Following the Son)




                       Em C 
Come on let our worlds collide
                                       D A 
We'll be gaining ground with every stride
                         Em C 
There's no need to run and hide
                                D         
When you can be set free

                         Em C 
We're living for the change we've made
                               D A 
Yeah, we're living for what we've gained
                               Em C 
And nothing's standing in our way
                   A 
We will never go astray


           Em 
We belong as one
 C 
We belong as one
 D A 
When all is said and all is done
         Em 
We belong as one
 C 
We belong as one
 D A 
(We belong as one, Following the Son)


           Em 
We belong as one
 C 
We belong as one
 D A 
When all is said and all is done
         Em 
We belong as one
 C 
We belong as one
 D A 
(We belong as one, Following the Son)

Last Mile Home chords – Kings Of Leon

 The whole song is pretty easy if you wanna play it nice and simple.
Enjoy!


NO CAPO



INTRO:  A  /  C#m  /  Cm  /  B#m  /  E A 
Take it back, I never meant it
 C#m Cm B#m 
Never thought it would come to pass
 B#m                                             
Baby know its not forgotten
 E 
Baby know that this is gonna last


 A  /  C#m  /  Cm  /  B#m  /  E A 
By and large I had it coming
 C#m Cm B#m 
I recall the tremble in your eyes
 B#m                                       
I just want to make it better,
 E 
I just want to make it right



 A C#m                                
Dreaming on the mile home, dreaming on the mile home
 Bm 
Things are always better when were all together
       E 
I'm dreaming on the last mile home


 A  /  C#m  /  Cm  /  B#m  /  E A 
Tell me that the bar is drinking 
 C#m Cm B#m 
And the lights are swinging in the smoke
 B#m                                   
I'm a fool for conversation
 E 
And Ive got nowhere to go


CHORUS 2x

 A C#m                           
Dreaming on the mile home, dreaming on the mile home
 Bm 
Things are always better when were all together
       E 
I'm dreaming on the last mile home


BRIDGE:  D  /  A  /  D  /  A  /  B#m 


CHORUS 2x

 A C#m                                  
Dreaming on the mile home, dreaming on the mile home
 Bm 
Things are always better when were all together
       E 
I'm dreaming on the last mile home


 A 
Baby Im the one who's broken
 C#m Cm            
Maybe I'm the breaker of the hearts
 Bm 
Been so lone since we've last spoken 
 E 
It's been lonely, baby it's been hard


 A  /  C#m  /  Bm  /  E  /  A  (play until the song ends)