Tag: knows

Heaven Knows Im Miserable Now Tabs – The Smiths V4

 Heaven Knows...  (capo 2nd fret) – figure out the rhythm by listening to the song

    Play these first four with tremolo bar, then alternate strumming between the following open chords
     F#maj7     Dmaj7       C#m       B       open B                 open C#
F#|---8-----------3----------2--------0-------0-0-0-0-0--0-0-0-0-0---0-0-0-0-0--0-0-0-0-0--
C#|---10----------5----------3--------2-------5-5-5-0-0--5-5-5-5-0---7-7-7-0-0--7-7-7-7-0--
A |---9-----------4----------2--------2-------6-6-6-6-6--6-6-6-6-6---8-8-8-8-8--8-8-8-8-8--
E |---10----------5----------4--------2-------7-7-7-7-7--7-7-7-7-7---9-9-9-9-9--9-9-9-9-9--
B |---8-----------3----------2--------0----------------------------------------------------
F#|----------------------------------------------------------------------------------------


Verse 1 and 3
       F#maj7                             D#m                      G#m
F#|------7------7---7----7----7---7---7----9---9---9---9---9---9----9----9----9------------
C#|------9------9---9----9----9---9---9----9---9---9--12--12---9---10---10----9------------
A |------8------8---8----8----8---8---8----9---9---9---9---9---9----9----9----9------------
E |------9------9---9----9----9---9---9---11--11--11--11--11--11---11---11---11------------
B |------7------7---7----7----7---7---7----------------------------------------------------
F#|----------------------------------------------------------------------------------------

         B          slide to  C#                  Third verse, do this instead:
F#|------0----0----0----0--/--0------0--------|--------------------------------------------
C#|------5----5----5----5--/--7------0--------|--------5---------------7-------------------
A |------6----6----6----6--/--8------8--------|-----------6---------------8----------------
E |------7----7----7----7--/--9------9--------|----7---------7---7/9---------9-------------
B |-------------------------------------------|--------------------------------------------
F#|-------------------------------------------|--------------------------------------------


       F#maj7                             D#m                     G#m
F#|------7------7---7----7----7---7---7----9---9---9---9---9--9----9----9----9-------------
C#|------9------9---9----9----9---9---9----9---9---9--12--12--9---10---10----9-------------
A |------8------8---8----8----8---8---8----9---9---9---9---9--9----9----9----9-------------
E |------9------9---9----9----9---9---9---11--11--11--11--11--11--11---11---11-------------
B |------7------7---7----7----7---7---7----------------------------------------------------
F#|----------------------------------------------------------------------------------------


         B                               
F#|------0----0----0----0----0----0---------
C#|------5----5----5----5----5----0---------
A |------6----6----6----6----6----6---------
E |------7----7----7----7----7----7---------
B |-----------------------------------------
F#|-----------------------------------------


The Chorus: “In my life...” 
       F#maj7         B          slide to  C#
F#|------7------7-----0----0----0----0--/--0------0---------------------------------------
C#|------9------9-----5----5----5----5--/--7------0---------------------------------------
A |------8------8-----6----6----6----6--/--8------8---------------------------------------
E |------9------9-----7----7----7----7--/--9------9---------------------------------------
B |------7------7-------------------------------------------------------------------------
F#|---------------------------------------------------------------------------------------

“Why do I smile...”
       F#maj7        C#               B                  A#m
F#|------7------7-----0----0----0--/--0----0-----0--------4---4--4--4---4-----------------
C#|------9------9-----7----7----7--/--5----5-----5--------4---4--4--4---4-----------------
A |------8------8-----8----8----8--/--6----6-----6--------4---4--4--4---4-------

He Knows My Name chords – Tommy Walker V6

 INTRO

 E F#m7 E/G# A E/B Bsus B A 


VERSE I


 E F#m7 E/G# A 
I have a Ma----ker

 E/B B7sus B A/B 
He formed my heart

 E F#m7 E/G# A 
Before even time began

 E/B B       
My life was in his 

 E F#m7 E/G# 
hands.


CHORUS


 A E B E 
He knows my name

 A E B E 
He knows my every thought

 A E B C#m 
He sees each tear that falls and 

 A B E A/E 
hears me when I call


VERSE II


 E F#m7 E/G# A 
I have a Fa----ther

 E/B B7sus B A/B 
He calls me His own

 E F#m7 E/G# A 
He'll never leave me

 E/B B E F#m7 E/G# 
No matter where I go


CHORUS 

 A E B E 
He knows my name

 A E B E 
He knows my every thought

 A E B C#m 
He sees each tear that falls and 

 A B E A/E 
hears me when I call



YouTube:
https://www.youtube.com/channel/UCNEFmIlsMqKfPeImMgatD1A

Ultimate Guitar Profile:
http://profile.ultimate-guitar.com/Maestro_727

Guitar Lessons website:
http://gsguitarfun.weebly.com

George Salas is a public middle school guitar teacher and Praise & Worship leader. He is currently pursuing 
a Master's in Music Education.

Next To Me chords – Otto Knows

 Next to Me - Otto Knows
Standard Tuning

 C F 
As a kid they told me love was made up
 C Am 
But I used to tell them they were wrong
 C F 
'Cause the blue-eyed girl that made me wake up
 C Am 
Stayed right by me in this song
 C F  (optional pause)
I stood there counting every heartbeat
 C Am 
Thinking about the words to say
 C F 
Trying not to understand that feeling
 C G 
Would it ever go away?

     F C 
Now those were the days
            Am G 
Before you had to go away
         F C Am -( C )- G 
Now I'm dancing by myself out in the ra-i-n
          F C 
Now it's getting rather cold
            Am G             
And I just wanted you to know
            F C 
That if my dreams will ever be
               Am G 
Will you come dancing next to me
         F 
Next to me

 G F C Am  x4

 C F 
You told me we would be forever
 C Am 
But maybe we were just too young
 C F 
I wonder if you still remember
 C G 
When we were dancing in the sun

     F C 
Now those were the days
            Am G 
Before you had to go away
         F C Am  -( C )-  G 
Now I'm dancing by myself out in the ra-i-n
          F C 
Now it's getting rather cold
            Am G             
And I just wanted you to know
            F C 
That if my dreams will ever be
               Am G 
Will you come dancing next to me
         F 
Next to me

 G F C Am  x6

Next to me

Next to me

God Only Knows chords – The Moon Loungers

 God Only Knows by the Beach Boys - Acoustic cover by the Moon Loungers

YouTube video - http://www.youtube.com/watch?v=1pYOGIDSRe4


CHORDS - Capo 2nd fret

   G D/F# Em7 C A7 D Gm7 E7 
______      _x____       ______       x_____       x_____       xx____       _x____       ______
||||||      ||||||       ||||||       ||||♦|       ||||||       ||||||       ||||||       |||♦||
|♦||||      ♦||♦||       |♦♦|||       ||♦|||       ||♦|♦|       |||♦|♦       ||||||       |♦||||
♦|||♦♦      ||||♦|       ||||♦♦       |♦||||       ||||||       ||||♦|       ♦||♦♦|       ||||||
||||||      ||||||       ||||||       ||||||       ||||||       ||||||       ||||||       ||||||
||||||      ||||||       ||||||       ||||||       ||||||       ||||||       ||||||       ||||||

   E F Am Am7/G B7b13 G/B 
______      ______       ______       ______       ______       x_____
|||♦||      ╪╪╪╪╪╪       ||||♦|       ||||♦|       ||||||       ||||||
|♦♦|||      |||♦||       ||♦♦||       ||♦|||       ╪╪╪╪╪╪       |♦||||
||||||      |♦♦|||       ||||||       ♦|||||       ||||||       ||||♦♦
||||||      ||||||       ||||||       ||||||       ||||♦|       ||||||
||||||      ||||||       ||||||       ||||||       ||♦|||       ||||||


INTRO

|   G D/F#   |  Em7 D/F#   |   G D/F#   |   Em7   |


VERSE 1
 C A7 Em7 A7 
I may not always love you,    but long as there are stars above you
 D Gm7 D E7 
You never need to doubt it,  I'll make you so sure about it
 G D/F# Em7 D E  -  F 
God only knows what I'd be without you


VERSE 2
 C A7 Em7 A7 
If you should ever leave me, though life would still go on believe me
 D Gm7 D E7 
The world could show nothing to me, so what good would living do me
 G D/F# Em7 
God only knows what I'd be without you


BREAK

|   G F   |   G F   |

|   F G   |   Am Am7/G D/F#   |   G B7b13   |   G A7   |


VERSE 3
 C G/B Am Am7/G D/F# 
God only knows what I'd be without you,    if you should ever leave me
 Em7 A7 D Gm7 
Though life would still go on believe me, the world could show nothing to me
 D E7 G D/F# Em7 D/F# 
So what good would living do me? God only knows what I'd be without you


OUTRO
 G D/F# Em7 D/F# 
God only knows what I'd be without you           (repeat to fade, end on G chord)

Heaven Knows chords – First Aid Kit V2

 Heaven knows

Capo 3

 G *                                       C *
You've spent a year staring into a mirror
         G *                                 D *
Another one trying to figure out what you saw
 G *                          C *            G *
Paid so much attention to what you're not
         G *     D *           G *
You had   no idea who you  a re


(Chorus)
            G 
But heaven knows, knows
 C G 
  That you're lying
           G 
As far as heaven goes, heaven goes
 C D 
  I just stopped trying


(Interlude)
 G G G G 


(Verse)
           G C 
Now I can hear every word you're saying
              G D 
I'm just not sure I want to know
         G C G 
You can play the fool and still follow the rules
        G D G 
If you seem like you care or you're good


(Chorus)
            G 
But heaven knows, knows
 C G 
  That you're lying
           G 
As far as heaven goes, heaven goes
 C D 
  I just stopped trying



(Interlude)
 G G 


(Solo)
 G C G C G C D G 


(Middle Eight)
 Em C 
  You've lost yourself in others' 
 D G 
  Expectations of you
 Em C 
  Now you prefer this cari-
   D G 
cature before being true
                                         Em C 
  But you're better than that,   you're so much better than that
 D G 
  I know you better than that

(Verse)
           G *                    C *
Now baby, tell me, what's your story?
        G *                D *
Do you think it'll ever sell?
     G C G 
And what'll you do if it comes down to it?
       G D G 
If it all goes STRAIGHT TO HELL?


(Chorus)
            G 
But heaven knows, knows
 C G 
  That you're lying
           G 
As far as heaven goes, heaven goes
 C D 
  I just stopped trying
  

 G 
Heaven knows (heaven knows)
        C 
Heaven knows
 G 
Heaven knows (heaven knows)
        C G 
Heaven knows,  that you're
 C C C D  
Ly---Ly---ly--ing

OUTRO: (slowly)
 G C G D G C G D G 

* - one strum

No One Knows chords – Dion And The Belmonts

 No One Knows:Dion And The Belmonts.
#19 on BB Hot 100 on LAURIE Records
in 1958.

INTRO:  A A7 D 


#1.
 D A 
No one knows what I go through, and the tears 
           D 
I cry for you.
            F#m F# G Ab A 
And when I smile....it's just a pose......my 
                        G A D 
heart is breaking, but no one knows.

#2.
 D A 
Friends won't learn the truth from me..I don't 
                   D 
want their sympa..thy.
           F#m G A 
You go to parties, dances and shows..I still 
               G A D 
love you, but no one knows.

BRIDGE:
 G Am A D Bm Em 
Maybe somehow, sometime, somewhere..you'll walk 
 A D D7 
by and hear my prayer.
 G A D Bm E E7 
My loneliness will fade away..darling, please tell 
           A G A 
me you'll stay.

#3.
     D A 
But if you should pass me by..I'll be hurt but I 
       D 
won't cry.
     F# G A 
And though my love for you still grows..I feel 
                G A D 
it's better if no one knows.

OUTRO:  A A7 D 


A fifties smash from Kraziekhat.

The Lord Knows Im Drinking chords – Cal Smith

 G 
Hello Mrs. Johnson you self-righteous woman
               C 
Sunday School teacher what brings you out slumming
                   G G7 C 
Do you reckon the preacher would approve where you are
               G D7 
Standing here visiting with a back-sliding Christian
                   G 
In a neighborhood bar
 
                                                   
Well yes that's my bottle and yes that's my glass
                      C 
And I see you're eye balling this pretty young lass
                       G G7 C 
It ain't none of your business but yes she's with me
                      G D7 
And we don't need no sermon you self-righteous woman
             G 
Just let us be
 
                    C G 
The Lord knows I'm drinking and running around 
                        C D7 
And He don't need your loud mouth informing the town
                    C G 
The Lord knows I'm sinning  and sinning ain't right 
                D7 
But me and the Good Lord's gonna have us a good talk
         G 
Later tonight
 
 
Goodbye Mrs. Johnson you self-righteous biddy
                   C 
I don't need your preaching and I don't need your pity
                   G G7 C 
So go back to whatever you hypocrites do
                    G D7 
And when I talk to Heaven be nice and I'll put in 
                 G 
A good word for you

                    C G 
The Lord knows I'm drinking and running around 
                        C D7 
And He don't need your loud mouth informing the town
                    C G 
The Lord knows I'm sinning  and sinning ain't right 
                D7 
But me and the Good Lord's gonna have us a good talk
         G 
Later tonight

No One Knows chords – Every Mothers Son

 No One Knows:Every Mother's Son.
#93 on BB Hot 100 on MGM Records
in 1967.

INTRO:  Ab 

#1.
 Ab 
When I walk through town now, I feel like 
              Bb 
a clown now, having fun.
 Ab 
But my heart is dying and my soul is crying..
 Bb 
life is done.
 Db Ab Eb 
On the surface, I come across like a happy-go-
       F# Eb 
lucky man.

CHORUS:
 Ab Db Ab 
No one knows how I feel inside..no one knows 
         Db 
all the tears I hide.
        Ab Db Bbm 
No one knows that the days are dragging me down, 
 Ab E Eb Ab 
down, down..no one knows.

#2.
 Ab 
Friends keep asking whether we still come together..
 Bb 
I say yes (I say yes.)
 Ab 
How I wish that I knew where to look to find you..
 Bb 
I'd be there (I'd be there.)
 Db Ab Eb 
All that's grim has become alive..without you, I want 
    F# Eb         
to die, (I want to die.)

CHORUS:
        Ab Db Ab 
No one knows how I feel inside..no one knows 
         Db 
all the tears I hide.
        Ab Db Bbm 
No one knows that the days are dragging me down, 
 Ab E Eb Ab 
down, down..no one knows.

BRIDGE:
 Bbm Ab Bbm 
Someday, someone's bound to see through me..discover 
            Cm 
I'm just a clown.
 Bbm Ab Bbm Cm 
Believing that you still love me when you're no longer 
  Db F# Eb 
around.

CHORUS:
        Ab Db Ab 
No one knows how I feel inside..no one knows 
         Db 
all the tears I hide.
        Ab Db Bbm 
No one knows that the days are dragging me down, 
 Ab E Gm Ab F# Ab 
down, down..no one knows.....

OUTRO:
       Db Ab Db Ab 
How I feel inside..all the tears I hide..
 Ab Db Ab Db Ab 
How I feel inside..all the tears I hide..(Fade.)


A sixties smash from Kraziekhat.

Everyone Knows Tabs by Easyworld V2

 Everyone knows

riff 1

e-------------------|
B-------------3-3-3-|
G-2-5/6-6-6---2-2-2-|
D-2-5/6-6-6-4-0-0-0-|
A-0-3/4-4-4-4-0-0-0-|
E-----------2-------|

riff 2

e---------------------------------------------|
B---------------------------------------------|
G-14-14-14-14-10-10-10-10-11-11-11-11-7-7-9-9-|
D---------------------------------------------|
A-12-12-12-12-8--8--8--8--9--9--9--9--5-5-7-7-|
E---------------------------------------------|

riff 3

b-2b3r2b3r2b3r2b3-10-3-5

Intro

riff 1 x4 clean
riff 1 x4 distorted

Verse 1

riff 2 x4
yeah yeah yeah its some fine revolution
and theres nobody can keep you down
ive paid you bitch now love me yeah cos
thats the way it is now

riffs 2+3 x4
hey hey hey dya know where your kids are
and kids dya know what the grown ups do
cos they all smoke crack in the teachers lounge
and then they beg you not to

Chorus

riff 1 x4
everyone knows that its all lies
theres nothing else on tv tonight

Verse 2
same music as verse 1

well happiness is some cubic zirconia
and one day son it could all be yours
just pin your hopes on industrial illness
and settle out of court

hey hey hey dya know where your kids are
and kids dya know what the grown ups do
cos they all smoke crack in the teachers lounge
and then they beg you not to

Repeat Chorus

Middle 8

e----------------------------------------------------------|
B----14----15----14----17----14----15----14----14h15p14----|
G-14----14----14----14----14----14----14----14----------14-|
D----------------------------------------------------------|
A----------------------------------------------------------|
E----------------------------------------------------------|

e-----------------------------------------|
B-----------------------------------------|
G-9-9-9-9-10-10-10-10-11-11-11-11-7-7-7-7-|
D-----------------------------------------| x3
A-7-7-7-7-8--8--8--8--9--9--9--9--5-5-5-5-|
E-----------------------------------------|

e--------------------------------|
B---------------------17---------|
G-6-6-6-6-13-13-13-13----14b16~~-|
D--------------------------------|
A-4-4-4-4-11-11-11-11------------|
E--------------------------------|

Repeat Chorus x2

End on A

No One Knows Tabs by Green Day V3

 Hello, i didn't found TAB anywhere, chords everywhere, only bass intro is tabed. I 
worked about that and I know how to play that song. The tab is correct, when I 
play sounds perfect. Enjoy!

Verse (Palm Muted*)
                *      *      *
|-------------|----------------------|
|-------------|----------------------|
|-------------|--------6(16x)--------|
|-6~----------|-4(16x)-6(16x)-6(16x)-|
|-6~----------|-4(16x)-4(16x)-6(16x)-|
|-4~----------|-2(16x)--------4(16x)-|

Chorus (It's played a little bit like verse, but look)

         (2x)             (3x)
|--------------------|------------|-------------|
|--------------------|------------|-------------|
|-------6(8x)--------|-------6(8x)|-------------|
|-4(8x)-6(8x)-6(16x)-|-4(8x)-6(8x)|-6~----------|
|-4(8x)-4(8x)-6(16x)-|-4(8x)-4(8x)|-6~----------|
|-2(8x)-------4(16x)-|-2(8x)------|-4~----------|

Bridge

Bridge is the same as verse, after that play chorus again.

End with:
|---------------|
|2~-------------|
|3~-------------|
|2~-------------|
|0~-------------|
|---------------|


~ let ring
* PM

God Only Knows chords – Mkto V4

 God Only Knows – MKTO
Capo 2

(Tips for chords:  A/C#  x4222x,  A/F#  20222x,  F#7  x44320,  Gsus2  3x0233)

(Verse 1 electric guitar licks without capo at the bottom)

[Verse 1]

 D (4)                  A/C# (2)     Bm (2)
I've always said that I could never fall 
 G (4)                  G A 
Because I love them all 
 D (4)                  A/F# (2)      Bm (2)       
My heart don't race when they try to call
 G G/F# (2)   Em (2)   A 
Because I love them all 

[Pre Chorus 1]

                 Gsus2 (4)                       D A 
But she got me stuttering like w-w-what can I do because I can't control it 
              Gsus2 (4)                       F#7  (8)
She got me hovering above the ground and I don't know what to do 

[Chorus]

 Bm  (2)     G D Em  (2)
God only knows how much I need you 
 Bm G D Em  
I could explode if I can't breathe you 
 Bm G D Em  
I'm on the ropes    5  4  3  2 
 Bm G D Em  
Cause you're the one I guess I'm done that's how it goes
 Bm G D Em  
Where would I be without you yeah God only knows 

 Bm G D Em      x2


[Verse 2]

 Bm G D Em  
There ain't a crime I wouldn't do for you 
 Bm G D Em  
Let's make our get away mmm 
 Bm G D Em  
These diamonds shine but not as bright as you 
 Bm G D Em  
I'll throw them all away 

[Pre Chorus 2]
                 G (4)                           D A 
I'm here surrendering And I give up, throwing my hands around you 
              G (4)                           F#7  (8)
And I can't remember when I felt like the way I felt for you

[Chorus] – post chorus chords 3x and then repeat last line of chorus

[Bridge]

 G (4)            A (4)           Bm (4)                 D A 
   You touch me with your body and all that I can think is how to lose your clothes 
 G (4)      A (4)
What's next 
         Bm (2)  G D Em (2)
God only knows 
           Bm G D Em  
God only knows 
           Bm G D Em  
God only knows 
           Bm G D Em  
          Ooooooo…

[Chorus] and post chorus chords 3x, then repeat last line of Chorus

Finish on Bm (1)





Verse 1 guitar licks without capo 


                                                                etc. “stuttering”
e|---------------------9------------------------------------12\--|     |--0---|
B|--9------------------9------------------------------------12\--|     |--0---|
G|--9--------9---------9-----9-----9---9-9--9-9--9---------------|     |--2---|
D|--9--------9------9--9-----9h11--9--11-9-11-9--9----9----------|     |--2---|
A|--7---9/11---11---9--x--------------------------9h11--7--------|     |------|
E|-----------------11--9-----------------------------------------|     |------|

(to play the whole song without capo i.e. with barre chords, just transpose this 
tab down 2

No One Knows Tabs by Green Day V2

 Important:
This song is in Half Step Down Tuning, but if you have your guitar in Standard Tuning,
just make notes in the previous fret (the Intro can't be played in Standard Tuning).


Intro (In the song, this is the Bass Line, but I adapted it to play it on guitar):

e|------------------------------------------------------------------------------|
B|------------------------------------------------------------------------------|
G|------------------------------------------------------------------------------|
D|---5---5------5---7p5---5---4---4------2---2------2--5p2----------------------|
A|--5---5-5----5-------------5---5-5----5---5-5----4--4-----4h5p4-4-2-4-2-0-----|
E|-7---7---7--6---6-----6---5---5---5--4---4---4--5-------------------------0-2-|

e|------------------------------------------------------------------------------|
B|------------------------------------------------------------------------------|
G|------------------------------------------------------------------------------|
D|---5---5---5------7-----7---7---7---7---7---7---7-----------------------------|
A|--5---5-------4h5---4h5---5----7---7---7---7----------------------------------|
E|-3---3---3--------------------5---5---5---5---5---7p5-------------------------|

e|------------------------------------------------------------------------------|
B|------------------------------------------------------------------------------|
G|------------------------------------------------------------------------------|
D|---5---5---5------7-----7---7---7---7---7---7---7-----------------------------|
A|--5---5-------4h5---4h5---5----7---7---7---7----------------------------------|
E|-3---3---3--------------------5---5---5---5---5---7p5-------------------------|

e|------------------------------------------------------------------------------|
B|------------------------------------------------------------------------------|
G|------------------------------------------------------------------------------|
D|---5---5---5------7-----7---------5---5---5------7-----7----------------------|
A|--5---5-------4h5---4h5----------5---5-------4h5---4h5------------------------|
E|-3---3---3---------------0h2----3---3---3-----------------0h2-----------------|

e|------------------------------------------------------------------------------|
B|------------------------------------------------------------------------------|
G|------------------------------------------------------------------------------|
D|---5---5---5------7-----7---7---7*--------------------------------------------|
A|--5---5-------4h5---4h5---5-----7*--------------------------------------------|
E|-3---3---3----------------------5*--------------------------------------------|


Verse (Palm mute):

e|------------------------------------------------------------------------------|
B|------------------------------------------------------------------------------|
G|------------------7777777777777777--------------------------------------------|
D|-5555555555555555-7777777777777777-7777777777777777---------------------------|
A|-5555555555555555-5555555555555555-7777777777777777---------------------------|
E|-3333333333333333------------------5555555555555555---------------------------|

e|------------------------------------------------------------------------------|
B|------------------------------------------------------------------------------|
G|------------------7777777777777777--------------------------------------------|
D|-5555555555555555-7777777777777777-7777777777777777---------------------------|
A|-5555555555555555-5555555555555555-7777777777777777---------------------------|
E|-3333333333333333------------------5555555555555555---------------------------|


Chorus:

e|------------------------------------------------------------------------------|
B|------------------------------------------------------------------------------|
G|----------7

God Only Knows chords – Mkto V3

 God Only Knows - MKTO

(( CAPO 4th ))


  Note :        I am not sure about the Dm*
                It sounds right but may also be played with a G chord
                (with D as bass)

 C Em Am 
I've always said that I could never fall
 F C G 
Because I love them all
 C Em Am 
My heart don't race when they try to call
 F C G 
Because I love them all

                 Fmaj7 
But she got me stuttering
                      C G 
Like w-w-what can I do because I can't control it
             Fmaj7 
She got me hovering
                         E 
Above the ground and I don't know what to do

  Am F 
God only knows
      C Dm *
How much I need you
 Am F 
I could explode
    C Dm *
If I can't breathe you
  Am F 
I'm on the ropes
 C Dm 
5 4 3 2

   Am F C Dm *
Cause you're the 1 I guess I'm done that's how it goes
   Am F C Dm *
Where would I be without you yeah God only knows

 Am F C Dm *

 Am F C Dm *

-----------------------------------------------

  Am F C Dm *
There ain't a crime I wouldn't do for you
 Am F C Dm *
Let's make our get away mmm
 Am F C Dm *
These diamonds shine but not as bright as you
 Am F C Dm *
I'll throw them all away

              Fmaj7 
I'm here surrendering
                 C G 
And I give up, throwing my hands around you
               Fmaj7 
And I can't remember when
                 E 
I felt like the way I felt for you

 Am F 
God only knows
      C Dm *
How much I need you
 Am F 
I could explode
    C Dm *
If I can't breathe you
  Am F 
I'm on the ropes
 C Dm 
5 4 3 2

   Am F C Dm *
Cause you're the 1 I guess I'm done that's how it goes
   Am F C Dm *
Where would I be without you yeah God only knows

 Am F C Dm *

 Am F C Dm *

 Am F C Dm *

   Am F C Dm *
Where would I be without you yeah God only knows


-----------------------------------------------

 Fmaj7 
You touch me
 G 
With your body
 Am C 
All that I can think is how to lose your clothes
 Fmaj7 G 
What's next
           Am F C Dm *
God only knows
           Am F C Dm *
God only knows
           Am F C Dm *
God only knows
           Am F C Dm *



(no chords)

God only knows
      C Dm *
How much I need you
 Am F 
I could explode
    C Dm   *
If I c

The Quient Things That No One Ever Knows Tabs by Brand New

 ARTIST: Brand New
SONG: The Quiet Things That No One Ever Knows 
: Music2myearhole
EMAIL: Marxyooj

TUNING: Eb Ab Db Gb Bb eb

My First time submitting tabs 

p - Pull Off

/ - Slide down from

\ - Slide Up from

. - Palm mute

(x#) - Number of strums 




INTRO

eb|---3p2---2------3p2----0-----3p2---2-----3p2---2--3/5------|
Bb|-------3---3---------3---3-------3---3--------3--3---------|
Gb|-----------------------------------------------------------|
Db|----------------------------------------0------------------|
Ab|----------------------------3------------------------------|
Eb|-3------------0--------------------------------------------|

CHORUS

Rhythm Guitar (All down strum)

eb|-----------------------------------------------------------|
Bb|-----------------------------------------------------------|
Gb|-----------------5-------7---------------------------------| (Repeat x2)
Db|-5-------2-------5-(x8)--7-(x8)----------------------------|
Ab|-5-(x8)--2-(x8)--3-------5---------------------------------|
Eb|-3-------0-------------------------------------------------|

Lead Guitar 

eb|----------10-------------------10--------------------------|  
Bb|-7h8-7h8------8-7h8---7h8-7h8------8-7h8-------------------|
Gb|-----------------------------------------------------------| (Repeat x2)
Db|-----------------------------------------------------------|
Ab|-----------------------------------------------------------|
Eb|-----------------------------------------------------------|
                     
eb|--------------15-------------------------15----------------|
Bb|-12h13-12h13------13-12h13--12h13-12h13------13-12h13------|
Gb|-----------------------------------------------------------|
Db|-----------------------------------------------------------|
Ab|-----------------------------------------------------------|
Eb|-----------------------------------------------------------|

eb|----------10-------------------10--------------------------|
Bb|-7h8-7h8------8-7h8---7h8-7h8------8-7h8-------------------|
Gb|-----------------------------------------------------------|
Db|-----------------------------------------------------------|
Ab|-----------------------------------------------------------|
Eb|-----------------------------------------------------------|

eb|----------10-------------------10--------------------------|
Bb|-7h8-7h8------8-7h8---7h8-7h8------8-7h8-------------------|
Gb|-----------------------------------------------------------|
Db|-----------------------------------------------------------|
Ab|-----------------------------------------------------------|
Eb|-----------------------------------------------------------|

eb|--------------15-------------------------15----------------|
Bb|-12h13-12h13------13-12h13--12h13-12h13------13-12h13------|
Gb|-----------------------------------------------------------|
Db|-----------------------------------------------------------|
Ab|-----------------------------------------------------------|
Eb|-----------------------------------------------------------|

eb|----------10-------------------10--------------------------|
Bb|-7h8-7h8------8-7h8---7h8-7h8------8-7h8-------------------|
Gb|-----------------------------------------------------------|
Db|-----------------------------------------------------------|
Ab|-----------------------------------------------------------|
Eb|-----------------------------------------------------------|

eb|--------------15-------------------------15----------------|
Bb|-12h13-12h13------13-12h13--12h13-12h13------13-12h13------|
Gb|-----------------------------------------------------------|
Db|-----------------------------------------------------------|
Ab|-----------------------------------------------------------|
Eb|-----------------------------------------------------------|

VERSE  

RHYTHM GUITAR

eb|-------------------

He Knows My Name solo Tabs by Tommy Walker

 -------------------------------------------------------------------------------
                             He Knows My Name - Tommy Walker
-------------------------------------------------------------------------------

Solo in the key of C according to http://www.youtube.com/watch?v=NXKWsfbizB4

e|----------------------------------------------10-12-12---10--13-12-10------|
B|-------------------------------------10-12-13--------------13---------13~--|
G|-5-7-9h10-9--5---/9-9--7p5-7~----12----------------------------------------|
D|---------------7~--------------12------------------------------------------|
A|---------------------------------------------------------------------------|
E|---------------------------------------------------------------------------|

e|--------------------------------------------12-13-12p10--------------------|
B|-13--------------------------------------13-------------13~----------------|
G|-14-12h14--------------------------(9)-------------------------------------|
D|----------10-------10-14-14-12-12-10---------------------------------------|
A|--------------10h12---15-15-10-10-10---------------------------------------|
E|---------------------------------------------------------------------------|

************************************

| /   slide up
| \   slide down
| h   hammer-on
| p   pull-off
| ~   vibrato
| +   harmonic
| x   Mute note
| b   Bend
| pb  Pre-bend
| br  Bend release
| pbr Pre-bend release
| brb Bend release bend

************************************

God Only Knows chords – Mkto V2

 Not fully correct, the last line of the bridge is definitely wrong, but still sounds ok



 G ,  Em ,  Cadd9 ,  D G Em 
I've always said that I could never fall 
 Cadd9 D 
Because I love them all 
 G Em        
My heart don't race when they try to call
 Cadd9 D  
Because I love them all 

                           Cadd9 
But she got me stuttering
                                Em D               
Like w-w-what can I do because I can't control it 
                   Cadd9 
She got me hovering
                              Em D  
Above the ground and I don't know what to do 

 Cadd9 G 
God only knows
 Em D  
How much I need you 
 Cadd9 G 
I could explode 
 Em D 
If I can't breathe you 
 Cadd9 G 
I'm on the ropes
 Em D  
5 4 3 2

 Cadd9 G Em D  
Cause you're the 1 I guess I'm done that's how it goes
 Cadd9 G Em D  
Where would I be without you yeah God only knows 



There ain't a crime I wouldn't do for you 
Let's make our get away mmm 
These diamonds shine but not as bright as you 
I'll throw them all away 

I'm here surrendering 
And I give up, throwing my hands around you 
And I can't remember when 
I felt like the way I felt for you

God only knows 
How much I need you 
I could explode 
If I can't breathe you 
I'm on the ropes 
5 4 3 2 
Cause you're the 1 I guess I'm done that's how it goes 
Where would I be without you yeah God only knows 
Yeah God only knows 
Yeah yeah yeah 
Where would I be without you yeah God only knows 

You touch me 
With your body 
All that I can think is how to lose your clothes 
What's next 
God only knows 
God only knows 
God only knows 

God only knows 
How much I need you 
I could explode 
If I can't breathe you 
I'm on the ropes 
5 4 3 2 
Cause you're the 1 I guess I'm done that's how it goes 
Where would I be without you yeah God only knows 
Yeah God only knows 
Where would I be without you yeah God only knows

Heaven Knows chords – Chase And Status

 I tried, sounds okay I guess. Corrections are more than welcome.

Chords
======

 C           032010
 G#          466544
 F           133211
 A#          688766


 C G# F 
Mmm..Mmm.. Mmm.. [x2]


          C G# F 
Do you remember, do you recall
                C G# F 
The day that I told you I wanted nothing at all?
                  C G# F 
You came and you chased me, I told you to leave
               C G# F 
Why won't you listen, why won't you listen to me?


   G G# 
I couldn't give a fuck about you and your stuff
      A# 
It's time that you went home
       G G# C 
Don't want you anymore, show yourself to the door



          C G# F 
Do you remember, do you recall
                  C G# F 
The day that you told me you thought that we could be more?
                  C G# F 
You came and you chased me, I told you to leave
                C G# F 
Why won't you listen, why won't you listen to me?


   G                         
I gave you my heart for a second and then
   G# A# 
I snatched it straight back, I couldn't pretend
 C 
Loving you was worth it



 G# F A#                      
Don't make it easy, it's me there's meant to cry
  C G# F 
You say that you need this, now don't just say goodbye
 C G# F A# C 
Heaven knows I tried, heaven knows I tried
   G# F 
Heaven knows, now don't just say goodbye

 C G# F A# C 
Heaven knows I tried, heaven knows I tried
   G# F 
Heaven knows, now don't just say goodbye

He Knows My Name chords – Tommy Walker V5

  beachynk


He Knows My Name
Tommy Walker

VERSE 1
 D Em D/F# G 
I have a maker
 D G Asus/A 
He formed my heart
 D Em D/F# G 
Before even time began
     D A D 
My life was in his hands


CHORUS
 G D/F# A C# D 
He knows my name
 G D/F# A D 
He knows my every thought
 G D A Bm  
He sees each tear that falls
        G A D         (Into bridge)  D Em D /F#  G Asus A 
And he hears me when I call


VERSE 2
 D Em D/F# G 
I have a father
 D G Asus/A 
He calls me his own
 D Em D/F# G 
He will never leave me
     D A D 
No matter where I go

CHORUS



BRIDGE
 G 
He knows me
 D/F# 
He loves me
 Em 
He wants me
 Asus/A 
He hears me when I call

 G 
He formed me
 D/F# 
He sees me
 Em 
Never leaves me
 Asus/A 
He hears me when I call

CHORUS

BRIDGE

CHORUS

He Knows My Name chords – Tommy Walker V4

 INTRO
 F Bb/F 

VERSE
 F Gm7 F/A Bb F/C Bb/D F/C C7sus C7 
I have a maker,      He formed     my heart
 F Gm7 F/A Bb F/C C7sus F Cm7 F 
Before even time began my life was in   His hands

CHORUS
 Bb F C7sus Eb/F F7/A 
He knows my name
 Bb F C F 
He knows my every thought
 Bb F C Dm7 Bb C C7sus F C/F Bb /F
He sees each tear that falls and hears me when I call

VERSE
 F Gm7 F/A Bb F/C Bb/D F/C C7sus C7 
I have a Father,      He calls    me His own
 F Gm7 F/A Bb F/C C7sus F Cm7 F 
He'll never   leave me  no matter where   I go

CHORUS
 Bb F C Fsus F F7/A 
He knows your name
 Bb F Csus C Cm7 F7 
He knows your ev-    'ry thought
 Bb F C      C#dim7      Dm7 
He sees all those tears that      fall
            Bb Csus C Fsus F 
And He'll hear you when   you call