Tag: land

Land Of Snow And Sorrow intro Tabs – Wintersun Vsion 1

 -------------------------------------------------------------------------------
                             Land of Snow and Sorrow - Wintersun
-------------------------------------------------------------------------------
: Kakku
Tuning: EADGBE (Normal)

All the way till first verse.

h   = Hammer on
p   = Pull off
/   = slide
(x) = To play or not to play..
~   = Awesome


e|---------------------------------------------------------------------------|
B|---------------------------------------------------------------------------|
G|---------------------------------------------------------------------------|
D|---------------------------------------------------------------------------|
A|-1--1-3-3-----1-1-3-4-4----1--4-6-6----1-1-6-8-8---------------------------|
E|---------------------------------------------------------------------------|

e|---------------------------------------------------------------------------|
B|---------------------------------------------------------------------------|
G|---------------------------------------------------------------------------|
D|---------------------------------------------------------------------------|
A|-1--1-3-3-----1-1-3-4-4----1--4-6-6----1-1-8-9-9---------------------------|
E|---------------------------------------------------------------------------|

e|---------------------------------------------------------------------------|
B|---------------------------------------------------------------------------|
G|---------------------------------------------------------------------------|
D|---------------------------------------------------------------------------|
A|-1--1-3-3-----1-1-3-4-4----1--4-6-6----1-1-6-8-8---------------------------|
E|---------------------------------------------------------------------------|

e|---------------------------------------------------------------------------|
B|---------------------------------------------------------------------------|
G|---------------------------------------------------------------------------|
D|---------------------------------------------------------------------------|
A|-1--1-3-3-----1-1-3-4-4----1--4-6-6----1-1-8-9-9---(1)---------------------|
E|---------------------------------------------------------------------------|


e|---------------------------------------------------------------------------|
B|---------------------------------------------------------------------------|
G|---------------------------------------------------------------------------|
D|-3h6-6----6p3-6----6-8-10----10s11-11-11----3h6-6----6-5-3----6-8-10-------|
A|---------------------------------------------------------------------------|
E|---------------------------------------------------------------------------|

e|---------------------------------------------------------------------------|
B|---------------------------------------------------------------------------|
G|-------------------------10-13-13---13-10-13---13-15-17---17-18-18b20------|
D|--11/13-13-13h16-16-15-----------------------------------------------------|
A|---------------------------------------------------------------------------|
E|---------------------------------------------------------------------------|

e|---------------------------------------------------------------------------|
B|----------------------------------------14-16-16~--------------------------|
G|-10-13-13---13-12h13p12-10---13-15-17--------------------------------------|
D|---------------------------------------------------------------------------|
A|---------------------------------------------------------------------------|
E|---------------------------------------------------------------------------|

\,,/ 

Repeat 3x:
_________________________________________________________________________________

e|---------------------------------------------------------------------------|
B|---------------------------------------------------------------------------|
G|-----------------

Super Mario Bros 3 – Grass Land Tabs – Misc Computer Games V2

 This is the overworld theme of world 1 in Super Mario Bros 3. Play along with youtube
to get a feel for it


E|-------------------------------------------------------------------------------
B|--8-----8--10--8--10--12--10--12--10-----12--10--8-----8--10--8--10--12--------
G|-----9----------------------------------------------9--------------------------
D|-------------------------------------------------------------------------------
A|-------------------------------------------------------------------------------
E|-------------------------------------------------------------------------------


E|---------------------------------------------------------------------------------------
B|--13--10--13--15--13--15--17--15--17--15-----17--15--13--10--13--15--13--15--17--------
G|---------------------------------------------------------------------------------------
D|---------------------------------------------------------------------------------------
A|---------------------------------------------------------------------------------------
E|---------------------------------------------------------------------------------------


E|-----------------------------------------------------------------
B|--8-----8--10--10--12--10--12--10-----12--10--13--13-----13--13--
G|-----9-----------------------------------------------------------
D|-----------------------------------------------------------------
A|-----------------------------------------------------------------
E|-----------------------------------------------------------------

My Little Pony Friendship Is Magic – Equestria The Land I Love chords – Misc Cartoons

 Ab Eb 
Equestria, the land I love
   Cm Bb Ab 
A land of harmony
                          Cm 
Our flag does wave, from high above
     Ab Fm Bb 
For ponykind to seeeeeeeeeee
 Fm Db Ab Eb 
Equestria,  a land of friends 
       Fm Db Ab Eb 
Where ponykind do roam
      Fm Db Ab Eb 
They say true friendship never ends
 Db Eb Ab 
Equestria my  home

>>>>TRIANGLE SOLO

Land In Sicht chords – Von Eden V2

 CAPO 3

Intro:
       Am C 
e|:----------------0-------------0----:|
B|:----------------1-------------1----:|
G|:----------------2-------------0----:|
D|:----------------2-------------2----:|
A|:---------2-3-0--0------3-2-0--3----:|
E|:---0h3-----------------------------:|


Strophe 1:

 Am G C    
 Und der Klügere gibt nach,
 F C/E G 
 Und die Sintflut meinetwegen,
 Am G C 
 Und der Dümmere sitzt nach,
 F C/E G 
 Hat sein letztes Hemd gegeben.


Chorus:

 Am/F# F 
Das Beste an mir,
      Am G 
sind wir, deinetwegen.
 Am/F# F 
Trag ich jeden Gedanken, 
                   C 
ganz groß an dich adressiert,
           Am 
schreibe ungeniert,
        Am/F# F 
deinen Namen in den Sand.
                      Am 
Das ist doch allerhand!


Strophe 2:

 Am G C   
 Und der Klügere denkt nach,
 F C/E G 
 nimmt den Wind aus meinen Segeln.
 Am G C   
 Beinah hat er es geschafft,
 F C/E G 
 Land in Sicht bei Dauerregen.


Chorus:

 Am/F# F 
Das Beste an mir,
      Am G 
sind wir, deinetwegen.
 Am/F# F 
Trag ich jeden Gedanken, 
                   C 
ganz groß an dich adressiert,
           Am 
schreibe ungeniert,
        Am/F# F 
deinen Namen in den Sand.


Bridge:

              C 
Es ist noch Land in Sicht,
           G  
er sieht Land in Sicht, sieht 
 Am 
Land...
(Das Beste an mir, das Beste an mir)
              C 
Es ist noch Land in Sicht,
           G Am 
er sieht Land in Sicht...


(Zwischenspiel)


Chorus:

 Am/F# F 
Das Beste an mir,
      Am G 
sind wir. Deinetwegen.
 Am/F# F 
Das Beste an mir,
      Am G 
sind wir. Deinetwegen.
 Am/F# F 
Deinetwegen. Deinetwegen.
       Am 
Ja meinetwegen!


Bitte bewertet das Lied:)
Please rate the song!;)

Land Of Treason Tabs – Germs V3

 The Germs - Land Of Treason
Track 3 "(GI)" (Slash Records 1979).

 Isaac Murguia, February 2015.
Originally uploaded to Ultimate-Guitar.com
Contact: www.youtube.com/user/Goadiroth

x = muted note
. = palm mute
~ = vibrato
/ = slide up

INTRO:
e|-7-------|
B|-8-------|
G|-9-------|
D|-9-------|
A|-7-------|
E|---------|

VERSE:
e|-7-7-7--8---8--8--8--8--8--8--|-7-7-7--7--7-7-7-7-7-7-|
B|-8-8-8--8---8--8--8--8--8--8--|-7-7-7--7--7-7-7-7-7-7-|
G|-9-9-9--9---9--9--9--9--9--9--|-8-8-8--8--8-8-8-8-8-8-|
D|-9-9-9--10--10-10-10-10-10-10-|-9-9-9--9--9-9-9-9-9-9-|
A|-7-7-7--10--10-10-10-10-10-10-|-9-9-9--9--9-9-9-9-9-9-|
E|--------8---8--8--8--8--8--8--|-7-7-7--7--7-7-7-7-7-7-| [x4]

CHORUS: (listen to song for strumming patterns)
e|-8----10-10--10-10-x10--|-8----7--|
B|-8----10-10--10-10-x10--|-8----7--|
G|-9----11-11--11-11-x11--|-9----8--|
D|-10---12-12--12-12-x12--|-10---9--|
A|-10---12-12--12-12-x12--|-10---9--|
E|-8----10-10--10-10-x10--|-8----7--|

POST-CHORUS:
e|------7--------7--------7--------7--|
B|------8--------8--------8--------8--|
G|------9--------9--------9--------9--|
D|------9--------9--------9--------9--|
A|------7--------7--------7--------7--|
E|-0000---000000---000000---000000----|

Repeat VERSE
Repeat CHORUS
Repeat POST-CHORUS
Repeat VERSE

CHORUS 2:
e|-------------------------------------|
B|-------------------------------------|
G|-------------------------------------|
D|-7-----------------9-----------------|
A|-7-----------------9-----------------|
E|-5-55555555-555555-7-77777777-777777-|
     ........ ......   ........ ......

e|---------------------------------|
B|---------------------------------|
G|---------------------------------|
D|-7-----------------9----9-9-9999-|
A|-7-----------------9----9-9-9999-|
E|-5-55555555-555555-7-77-7-7-7777-|
     ........ ......   ..

Repeat VERSE

CHORUS VARIATION:
e|-8----10-10--10-10-x10--|-8-----------|
B|-8----10-10--10-10-x10--|-8-----------|
G|-9----11-11--11-11-x11--|-9----4~~-/7-|
D|-10---12-12--12-12-x12--|-10----------|
A|-10---12-12--12-12-x12--|-10----------|
E|-8----10-10--10-10-x10--|-8-----------|

OUTRO:
e|------7--------7--------7--------7--|
B|------8--------8--------8--------8--|
G|------9--------9--------9--------9--|
D|------9--------9--------9--------9--|
A|------7--------7--------7--------7--|
E|-0000---000000---000000---000000----|

e|------7--------7--------7-7777-x-7--|
B|------8--------8--------8-8888-x-8--|
G|------9--------9--------9-9999-x-9--|
D|------9--------9--------9-9999-x-9--|
A|------7--------7--------7-7777-x-7--|
E|-0000---000000---000000----------0--|

End. Please rate! :D

No Mans Land chords – Bob Seger And The Silver Bullet Band

 C  -  G  -  D  -  Am  (2x)
 
 C G D Am 
Headin' in or headin' out,        standing on the shore,
 C G D Am 
pause a moment to reflect         which trip costs you more.
 C G D Am 
Between the ever restless crowds   and the silence of your room,
 C G D Am 
spend an hour in no man's land,       you'll be leaving soon.
 
 C G D Am         
Victims come and victims go,         there's always lots to spare,
 C G D Am 
one victim lives the tragedy,        one victim stops to stare.
 C G D Am 
And still another walks on by         pretending not to see,
 C G D Am 
they're all out there in no man's land ‘cause it's the safest place to be.
 
 F Bb C F 
but sanctuary never comes        without some kind of risk,
 F Bb C D 
Illusions without freedom never quite add up to bliss.
 F Bb C F 
The haunting and the haunted play a game no one can win,
 F Bb C D 
The spirits come at midnight and by dawn they're gone again.
 
 C G D Am 
And so it seems our destiny         to search and never rest,
 C G D Am 
to ride that ever changing wave          that never seems to crest.
 C G D Am 
To shiver in the darkest night,         afraid to make a stand,
 C G D Am  
and then go back and do our time out there in no man's land.

Sweet Beulah Land chords – Squire Parsons

 Sweet Beulah Land
Squire Parsons


Intro:

  
e|x   x   x   x   |
B|x   x   0   x   |
G|x   x   x   x 2 |
D|x   0   x   x   |
A|x   x   x   x   |
E|x   x   x   x   |


 G Am G/B C D B7 Em D G C G/B Am D G D  -  C  -  G 


Verse 1:

              G Am G/B C G D G 
I'm kind of homesick    for a country
                Bm Am D G D 
To which I've never   been before
            G Am G/B C G D G 
No sad goodbyes       will there be spoken
                 Bm Am D G C G 
And time won't matter   anymore


Chorus 1:

 D G 
Beulah Land, I'm longing for you
                             D 
And someday, on thee I'll stand
           G B7 Em 
Where my home shall be eter  -  nal
 Em D/F# G D G Eb 
Beu - lah   Land, sweet Beulah Land


Verse 2:

              Ab Bbm Ab/C Db Ab Eb Ab 
I'm looking now            across the river
            Cm Bbm Eb Ab Eb 
Where my faith    shall end in sight
                 Ab Bbm Ab/C Db Ab Eb Ab 
There's just a few           more days to labor
             Cm Bbm Eb Ab Db Ab 
Then, I'll take     my heavenly flight


Chorus 2:

 Eb Ab 
Beulah Land, I'm longing for you
                             Eb 
And someday, on thee I'll stand
           Ab C7 Fm 
Where my home shall be eter - nal
 Fm Eb/G Ab Eb Ab Eb 
Beu - lah  Land, sweet Beulah Land


Tag:

         Ab        
Beulah Land, O it’s Beulah Land
                        Eb Ab 
O Beulah Land, Sweet Beulah Land


Dj Paul Elstak – Promised Land intro Tabs

 E|--0---1-0----------0------0-------------------------------------0--1-0------------0--------R
B|--1-------3--1---------3----3-1--0---3----1----3--1--0----------1-------3p1---3-----3-1--3-E
G|--2-------------2------4-----------0------2------------2---2----2----------2--4------------P
D|-----------------------5------------------3--------------3--------------------5------------E
A|-------------------------------------------------------------------------------------------A
E|-------------------------------------------------------------------------------------------T



http://www.paulelstak.nl/nl/

Brother chords – Orphaned Land

 Been looking for these chords for some time, got kinda frustreted by the fact no 
one uploaded them, So I extracted them myself instead of being lazy. so, here 
goes. pretty much accurate, figure riffs on your own. (I rock this song on the uke 
so no metal riffs)

 Orphaned Land
 All is One
Song: Brother (A plea of itzhak to Ishmael)
Tuning: Standard


Verse:

 Am Bm Em C 
This story began before I was born 
 Am Bm Em 
A childless woman cried sadly at home 
 Am Bm Bm/G D C 
Her maid gave birth to a child of her own 
 Am Bm Em 
My father felt joy yet he was torn 
 Am Bm Em C 
A conflict began one day at dawn 
 Am Bm Em 
The maid took your hand and you were gone 
 Am Bm Bm/G D C 
To the desert you left, towards the unknown 
 Am Bm Em 
I reckon you were so alone 


Chorus:

 Am Bm Em 
God will hear you oh, my blood 
 Am Bm Em 
For the years you roamed in dirt and mud 
 Am Bm D G      
Forsaken like a nomad, deserted in the flood 
 F Bm Em 
Forgive me, brother 

You did nothing wrong and took all the shame 
I suffered myself, yet I am to blame 
The lord blessed us both, but we still fight and claim 
That kid on the mountain, - what was his name? 

Brother hear my plea tonight 
I grew tired from these endless years of (Our) fight 
From a tiny corner stone we may build our realm of light
Please hear me, brother

Beloofde Land chords – Die Heuwels Fantasties

 C Dm 
belowe my
  Bb 
die beloofde land

 
  C Dm 
ek weet hoe dit voel om te vlieg
                      Bb 
al ooit gewonder

al ooit verdrink 
                           C 
word wakker dis more
                       Dm 
ons kan wees wat ons wil

aan daardie kant 
        Bb 
geen reëls 

geen kontant

 C Dm Bb  X2

 C Dm 
belowe my
                   Bb 
die beloofde land
                      F 
of is dit klaar hier
                    C 
aan die ander kant
                 Dm 
van die spektrum
                  Bb 
hoe dit ookal sy
           F 
belowe my

beloofde land

Gelobtes Land chords – Peter Maffay

 Dm B F  
Am Horizont da brennt ein Licht, 
 Dm B F  
die Welt da draussen wartet nur auf mich.
 Dm B F  
100 Pferde stürmen mit mir durch das Morgengrau, 
 Dm B F  
auf dem Weg dorthin hören meine Sorgen auf.
 C Gm 
Im freien Fall durch das gelobte Land
 B F   
Kein Plan B und auch kein Notausgang
 C Gm 
Nichts hält mich auf, auf meinem Thron aus Flammen,
 B F 
im freien Fall durch das gelobte Land


Solo  Dm B F Dm B F Dm B F 
Zwei Zylinder voll Adrenalin,
 Dm B F 
Gewitter, die durch die Straßen ziehn.
 Dm B F 
Ich fahre los, schau nicht zurück,
 Dm B F 
das Leder umarmt mich wie das pure Glück.
 C Gm 
Im freien Fall durch das gelobte Land
 B F   
Kein Plan B und auch kein Notausgang


 Dm B F  
Zeit zerreißt und die Weite bricht,
 Dm B F  
die Ferne naht und ich bremse nicht.
 Dm B F  
Der Teufel nimmt meine Fährte auf.
 Dm B F 
Doch mein Höllenstuhl brennt seine Kerzen aus.
 C Gm 
Im freien Fall durch das gelobte Land
 B F   
Kein Plan B und auch kein Notausgang.
 C Gm 
Nichts hält mich auf, auf meinem Thron aus Flammen,
 B F 
im freien Fall durch das gelobte Land.


 Dm B F  
Am Horizont da brennt ein Licht, 
 Dm B F  
die Welt da draussen wartet nur auf mich.
 Dm B F  
100 Pferde stürmen mit mir durch das Morgengrau, 
 Dm B F  
auf dem Weg dorthin hören meine Sorgen auf.
 C Gm 
Im freien Fall durch das gelobte Land
 B F   
Kein Plan B und auch kein Notausgang
 C Gm 
Nichts hält mich auf,auf meinem Thron aus Flammen,
 B F 
im freien Fall durch das gelobte Land


 Dm B F  
Alte Schatten wollen das ich nie mehr geh.
 Dm B F  
Der Sonne ist das egal wie hoch sie steht.
 Dm B F  
Und am Horizont da brennt ein Licht, 
 Dm B F  
die Welt da draussen wartet nur auf mich.
 Dm B F  
100 Pferde stürmen mit mir durch das Morgengrau, 
 Dm B F  
auf dem Weg dorthin hören meine Sorgen auf.
 C Gm 
Im freien Fall durch das gelobte Land
 B F   
Kein Plan B und auch kein Notausgang
 C Gm 
Nichts hält mich auf, auf meinem Thron aus Flammen,
 B F 
im freien Fall durch das gelobte Land


Solo  Dm B F Dm B F  2x

Great Southern Land chords – Icehouse V2

 Great Southern Land by Icehouse - https://www.youtube.com/watch?v=aZ4NuX0qWuY
 Intro: | A    |    |    |    |    |    |    |
        | A B  |    | A    |    | B    |    | A    |    |
        | B    |  Standing ...
         
                  A                                                             
Standing at the limit of an endless ocean
                 B 
stranded like a runaway, lost at sea
              A 
sitting on a rainy day down in the harbor
                 B                  
watching as the grey clouds shadow the bay
              A              
looking everywhere 'cause I had to find you
                 B 
this is not the way that I remember it here
             A        
anyone will tell you it's a prisoner island
               B      
hidden in the summer for a million years

                 C#m 
Great Southern Land, burned you black


                      A                                      
So you look into the land and it will tell you a story
               B 
story 'bout a journey ended long ago
                      A                               
if you listen to the motion of the wind in the mountains
               B                          
maybe you can hear them talking like I do
                      A      
". . they're gonna betray you, they're gonna forget you
                        B 
are you gonna let them take you over that way . ."

                                                         
                 C#m 
 Great Southern Land, Great Southern Land
you walk alone, like a primitive man
and they make it work, with sticks and bones,
see their hungry eyes, it's a hungry home.


 Abm 
    I hear the sound, of the stranger's voices,
I see their hungry eyes, their hungry eyes
                C#m 
Great Southern Land, Great Southern Land
they burned you black, black against the ground


Standing at the limit of an endless ocean
stranded like a runaway, lost at sea
sitting on a rainy day down in the harbor
watching as the grey clouds shadow the bay

looking everywhere .... I had to find you
this is not the way that I remember it here
anyone will tell you it's a prisoner island
hidden in the summer for a million years

                C#m 
Great Southern Land, in the sleeping sun
you walk alone with the ghost of time
they burned you black, black against the ground
and they make it work with rocks and sand


 Abm 
    I hear the sound, of the stranger's voices,
I see their hungry eyes, their hungry eyes
               C#m --> [all the way to the end]
Great Southern Land, Great Southern Land
they burned you black, black against the ground


you walk alone, like a primitive man
you walk alone with the ghost of time
and they burned you black
yeah, they burned you black
Great Southern Land

In A Newfound Land You Are Free chords – Villagers

 F#7  can be played as  F#  if you prefer : )



 D   Gadd#11 -  G   x3

 D F#7 Bm C G 
How heavy you are, my newborn child
    C G F#7 Bm 
So viciously free, so careless and wild
          C G F#7 Bm 
With the eyes of a saint and the soul of a thief
       D        Gadd#11 -  G 
And a newfoundland

 D        Gadd#11 -  G D        Gadd#11 -  G D F#7 Bm C G 
The window's reveal the spinning sea
       C G F#7 Bm 
Which ripples and rolls as it runs underneath
       C G F#7 Bm 
And I smuggle this sense of sheer disbelief
      D        Gadd#11 -  G 
In a newfoundland

 D        Gadd#11 -  G   x2

 D F#7 Bm C G 
Born in the birth of the mild month of May
          C G F#7 Bm 
And your gentle repose, I could never betray
         C G F#7 Bm 
But for now I am burnt by a lifetime too brief
               D       Gadd#11 -  G 
And with this newfoundland

 D       Gadd#11 -  G D         Gadd#11 -  G 
Comes a newfound grief

 D       Gadd#11 -  G Dm/A Dm/Bb Dm/B 
But in a newfoundland

 A A6 A7 D       Gadd#11 -  G 
You are free

 D        Gadd#11 -  G D        Gadd#11 -  G D

Land Of The Living chords – Roo Panes

 Land of the Living - Roo Panes

He plays the verses of this song picking the B and A strings followed by the G 
string (pun not intended), simultaneously playing the riff with his pinky. He 
strums for the pre-chorus and chorus. Brilliant song - love it! 

Capo 5 
Standard Tuning


Intro:
 C 

Verse 1:
 C 
Where they go 
That we shall cherish and that I wrestle 
Don't want to be like the dust that settles

V2:
This empire of nothing 
I find that I'm king of all these empty homes
That are ruled by my own flaws


Pre-Chorus:
                     C 
But you can't be an old fire 
  F C G 
If you are burning with a new flame
      C F C G 
So remember that, you are never a forgotten name


Chorus:
      C F C 
Cause I know a land called the land of the living
                                               F C 
It's the world beyond those curtains where we learned to play 
                         F C F 
I hear the voices of my childhood singing it's the world beyond those 
 C 
doorways 
          F C 
Where we used, to play

V3:
Cause every moment
Is a chance to define what you want to become
You're not a slave to things you've done

V4:
Be brave and be bold,
Be childish and old it's the same old story
Every life needs a hope of glory.

V5:
But you can't be an old fire
If your burning with a new flame
So remember that, you are never a forgotten name.


Chorus:
      C F C 
Cause I know a land called the land of the living
                                               F C 
It's the world beyond those curtains where we learned to play 
                         F C F 
I hear the voices of my childhood singing it's the world beyond those 
 C 
doorways 
          F C 
Where we used, to play
      

Bridge:
       C F 
I was born to be free, you were born to free me,
       C F 
I was born to be free, you were born to free me
       C F 
I was born to be free, you were born to free me
       C F 
I was born to be free, you were born to free me.


Chorus:
      C F C 
Cause I know a land called the land of the living
                                               F C 
It's the world beyond those curtains where we learned to play 
                         F C F 
I hear the voices of my childhood singing it's the world beyond those 
 C 
doorways 
          F C 
Where we used, to play


Chorus:
      C F C 
Cause I know a land called the land of the living
                                               F C 
It's the world beyond those curtains where we learned to play 
                            F C 
Oh we'll go back, we'll go back to the beginning 
                                      F C 
And well pick up on the trails of forgotten ways.

Outro:
 C

Naar En Sailor Gaar I Land chords – Otto Brandenburg

 -----------------------------------------------------
     NÅR EN SAILOR GÅR I LAND - Otto Brandenburg
-----------------------------------------------------
Fra filmen "Sømand i Knibe" (1960)
Tekst: Erik Leth
Musik: Sven Gyldmark

 C 
Sømanden ved, at søde pigehjerter,
 F G 
banker i hver en havn, så snart han er der.
            A D7 
For når en sailor, en rigtig sailor, går i land,

så ved man aldrig, hvad der kan ske.
 G 
Langs med hele kajen vinker glade pi'r og si'r:
 C 
Skubidube Skubidube
 
Når en sailor, en rigtig sailor, går i land,
så ved man aldrig hvad der kan ske.
Dans en rigtig rock med mig,
så hvisker jeg til dig:
Skubidube Skubidube
 
 C 
En sailor følger sin pige hjem i måneskin,
 F 
mens de nynner kind mod kind.
 D7 
Månen står vagt og brummer i takt:
 G 
Skubidube Skubidube
 
Ja, når en sailor, en rigtig sailor, går i land,
så ved man aldrig, hvad der kan ske.
Pigen var så sød, hun fik et kys og det betød:
Skubidube Skubidube
 
En sailor, en sailor, en sailor en sailor en sailor går i land,
så ved, så ved, så ved, man aldrig, hvad der kan ske.
Langs med hele kajen vinker glade pi'r og si'r:
Skubidube Skubidube
 
Ja - Når en sailor, en rigtig sailor, går i land,
så ved man aldrig hvad der kan ske.
Dans en rigtig rock med mig,
så hvisker jeg til dig:
Skubidube Skubidube

Treasure Of The Broken Land chords – Chagall Guevara

 "Treasure of the Broken Land"
By Chagall Guevara
http://en.wikipedia.org/wiki/Chagall_Guevara
Written by Mark Heard
http://en.wikipedia.org/wiki/Mark_Heard



 G C G
I see you now and then in dreams
 G C G
Your voice sounds just like it used to
 G D Em
I know you better than I knew you then
 C D G
All I can say is I love you

 G C G
I thought our days were commonplace
 G C G
Thought they would number in millions
 G D Em
Now there's only the aftertaste
 C D G
Of circumstance that can't pass this way again

(Chorus)
 G C G
Treasure of the broken land
 G D G
Parched earth, give up your captive ones
 G C G
Waiting wind of Gabriel
 G Em D G
Blow soon upon the hollow bones


 G C G
I saw the city at its tortured worst
 G C G
And you were outside the walls there
 G D Em
You were relieved of a lifelong thirst
 C D G
I was dry at the fountain

 G C G
I knew that you could see my shame
 G C G
But you were eyeless and sparing
 G D Em
I awoke when you called my name
 C D G
I felt the curtain tearing
 G D Em
I awoke when you called my name
 C D G
I felt the curtain tearing

(Chorus)
 G C G
Treasure of the broken land
 G D G
Parched earth, give up your captive ones
 G C G
Waiting wind of Gabriel
 G Em D G
Blow soon upon the hollow bones


 C Bm C D
                          All the way to Macon
 C Bm C D
                         All the way to Macon
 G G C G
I can melt the clock hands down
 G C G
But only in my memory
 G D Em
Nobody gets the second chance
 C D G
To be the friend they meant to be
 G C G
I see you now and then in dreams
 G C G
Your voice sounds just like it used to
 G D Em
I believe I will hear it again
 C D G
God how I love you

(chorus twice)

Land Of Green chords – The Coalminers Beat V2

 Am 
I was sitting in a station bar,  
  C G Am  
somewhere in amerika  
  Am C G  
when an old man came to me  
  Am         
he said: "can I sit next to you?",  
     C G Am 
and I had nothing else to do  
        C G  
so he sat down and drank his beer  


     Am   
he told me 'bout the rocks and hills,  
  C G Am  
about the autum and its chill  
  Am C G  
about the valleys and the rain  
  Am      
and then he spoke of former times,  
  C G Am  
about his children and his wife  
  Am C G  
and about what yet remained  


  F G  
suddenly he said: "my son,  
  F Em  
do you know the land,  
  Em Em Em Em  
where i've come from  
  Em Em Em 
and he asked  


  Am G  
do you know the land of green,  
  Em F  
its rough and stormy sea  
  Am G Em   FG  
do you know the island of the rain  
  Am G  
do you know the land of green,  
  Em F  
its wondrous scenery  
  Am G Em   FG 
do you know the island of the rain  



  Am          
many of us had left their homes,  
  C G Am  
never felt the westwind blow again  
     C G  
he said with lonely eyes  
       Am        
they once had worked upon the land,  
       C G Am 
that now is in some stranger's hands     
     C G  
he said with angry eyes  


  F G  
the more he spoke, the more he drank  
  F  
the more he kept  
      Em Em Em Em Em Em  
on telling 'bout his land and he  
  Em  
said  


  Am G  
do you know the land of green,  
  E F  
its rough and stormy sea  
  Am G Em   FG  
do you know the island of the rain  
  Am G  
do you know the land of green,  
  Em F  
its wondrous scenery  
  Am G Em   FG 
do you know the island of the rain 


        Am            
even though the bar was full of noise,  
      C G Am  
the man began to lower his voice  
           C G  
and stood up without a word  
  Am  
although it is five years ago i  
  C  
swear  
          G Am  
that i exactly know   
        C G  
every word that we had said  


    F G  
I still can see his trembling hands,  
  F Em Em Em Em  
as he told the story 'bout his land 
 Em Em Em  
and he said  



  Am G  
do you know the land of green,  
  E F  
its rough and stormy sea  
  Am G Em   FG  
do you know the island of the rain  
  Am G  
do you know the land of green,  
  Em F  
its wondrous scenery  
  Am 

Land Of Bloody Fucking Idiots Tabs by Frei Wild

 Frei.Wild - Land of Bloody Fuckin Idiots
Lyrics & Song Frei.Wild |  Marvin B.
Nothing specific to explain here. Original played
by two guitarists: Philipp Burger (Rythm Guitar),
Jonas Notdurfter (Lead Guitar)

==TABS===================================================

Intro
E|------------------------------------------------------|
H|--5-5--5-5-5--5-5-----5-5-----5-5---------------------|
G|----------------------------------7-7--5-7-7b9-9-9----|
D|------------------7-7-----7-7-------------------------|
A|------------------------------------------------------|
E|------------------------------------------------------|


E|------------------------------------------------------|
H|------------------------------------------------------|
G|--9r7-5-----------5-----------------------------5-----|
D|--------7-7-5-7-7---7---7-7-7-5-7---7-7-7-5-7---------|
A|------------------------------------------------------|
E|------------------------------------------------------|

                                         A.H
E|------------------------------------------------------|
H|------------------------------------------------------|
G|--7b9-9-9-9r7-5----------------5----------------------|
D|----------------7-5-------5-7----7-7-5-7--------------|
A|--------------------7-5-7-----------------------------|
E|------------------------------------------------------|


Solo
E|------------------------------------------------------|
H|------------------------------------------------------|
G|--/5-5-5-5-5-5-4----/7-7-7-7-7-7-4---/9-9-9-9-9-9-4---|
D|------------------------------------------------------|
A|------------------------------------------------------|
E|------------------------------------------------------|


E|------------------------------------------------------|
H|------------------------------------------------------|
G|--/5-5-5-5-5-5-4-5-4---/5-5-5-5-5-5-4--/7-7-7-7-7-7-4-|
D|------------------------------------------------------|
A|------------------------------------------------------|
E|------------------------------------------------------|


E|------------------------------------------------------|
H|------------------------------------------------------|
G|--/9-9-9-9-9-9-4---/5-5-5-5-4-5------------------5-7--|
D|----------------------------------/5-5-5-5-5-5-7------|
A|------------------------------------------------------|
E|------------------------------------------------------|


E|------------------------------------------------------|
H|------------------------------------------------------|
G|--7-7-7-7-7-7-5-7-5---/7b9r--7-5-7-5-----------5------|
D|-------------------------------------5-7-7-7-7---7~~--|
A|------------------------------------------------------|
E|------------------------------------------------------|


E|------------------------------------------------------|
H|------------------------------------------------------|
G|--------------------------------17--19--19-19-19-19---|
D|--/19-19-19--19-19--19--17--19------------------------|
A|------------------------------------------------------|
E|------------------------------------------------------|

E|------------------------------------------------------|
H|------------------------------------------------------|
G|-19--17--19--17--/19b21r--19--17--19--17--------------|
D|------------------------------------------17--19--19--|
A|------------------------------------------------------|
E|------------------------------------------------------|

E|------------------------------------------------------|
H|------------------------------------------------------|
G|----------17------------------------------------------|
D|--19--19------19~~~-----------------------------------|
A|------------------------------------------------------|
E|------------------------------------------------------|


==CHORDS=================================================

     G5