Tag: lauren

Rescue piano chords by Lauren Daigle

[Intro]

A   E   B   C#m


[Verse 1]

             A     E
You are not hidden
                      B
There's never been a moment
             C#m
You were forgotten
             A      E
You are not hopeless
                       B
Though you have been broken
                 C#m
Your innocence stolen


[Pre-Chorus 1]

  A                E/G#           B      C#m
I hear you whisper underneath your breath
  A          E/G#       B
I hear your SOS, your SOS


[Chorus 1]

E      Asus2/F#            C#m
I will send out an army to find you
       A                     C#m
In the middle of the darkest night
           A            E
It's true, I will rescue you


[Verse 2]

             A      E
There is no distance
                B
That cannot be covered
         C#m
Over and over
              A       E
You're not defenseless
               B
I'll be your shelter
             C#m
I'll be your armor


[Pre-Chorus 1]

  A                E/G#           B      C#m
I hear you whisper underneath your breath
  A          E/G#       B
I hear your SOS, your SOS


[Chorus 2]

E      Asus2/F#            C#m
I will send out an army to find you
       A                     C#m
In the middle of the darkest night
           A            E
It's true, I will rescue you
E      Asus/F#                C#m
I will never stop marching to reach you
       A                     C#m
In the middle of the hardest fight
           A            E
It's true, I will rescue you


[Pre-Chorus 2]

  A                E/G#           Bsus    B
I hear the whisper underneath your breath
  A                 E/G#            Bsus   B
I hear you whisper, you have nothing left


[Chorus 2]

E      Asus2/F#            C#m
I will send out an army to find you
       A                     C#m
In the middle of the darkest night
           A            E
It's true, I will rescue you
E      Asus/F#                C#m
I will never stop marching to reach you
       A                     C#m
In the middle of the hardest fight
           A            E
It's true, I will rescue you


[Outro]

C#m   A            E
  Oh, I will rescue you

Once And For All chords – Lauren Daigle

 No capo

Intro  D E A A E 
God I give You what I can today
   F#m E 
These scattered ashes that I hid away 
 D E A 
I lay it all at Your feet
 D A 

(A)                     E
From the corners of my deepest shame
  F#m E 
The empty places where I've worn Your name
   D E A      (Bm)A
Show me the love I say I believe

               D F#m A 
O Help me to lay it down
               D F#m E 
Oh, Lord I'll lay it down 

            D F#m E 
O let this be where I die
 A D F#m E 
My Lord with thee crucified
 A D F#m A E 
Be lifted high as my kingdoms fall
 Dbm D E Dbm A 
Once and for all, once and for all

 A E 
There is victory in my saviour's loss
    F#m E 
and in the crimson flowing from the cross
  D E A   
Pour over me, pour over me

            D F#m E 
O let this be where I die
(Dbm)         D F#m E 
My Lord with thee crucified
 A D E F#m 
Be lifted high as my kingdom fall
 Dbm D Bm A 
Once and for all, once and for all

           D F#m A 
O Lord I lay it down
           D F#m A 
O Lord I lay it down
             D F#m A 
Help me to lay it down
           D F#m E 
O Lord I lay it down

            D F#m E 
O let this be where I die
 F#m D F#m E 
My Lord with thee crucified
 F#m D A        (Abm)    F#m 
Be lifted high as my kingdom fall
 E D 
Once and for all
 E A D 
Once and for all
 E A D 
O Once and for all
  E A 
Once and for all

Fools Tabs – Lauren Aquilina V2

 -------------------------------------------------------------------------------
                             Fools - Lauren Aquilina
-------------------------------------------------------------------------------

Tuning: Standard
Capo: None

The song layout is as follows:
[FILL]x2
[VERSE]x4
[PRE-CHORUS]x1
[FILL]x2
[VERSE]x4
[PRE-CHORUS]x1
[PENULTIMATE CHORUS]x1
[FINAL CHORUS]x1

-------------------------------------------------------------------------------

[VERSE/FILL]
e|------------------|------------------|--------------|--------------|
B|------------------|------------------|--------------|--------------|
G|---11--11--11--11-|---12--12--12--12-|---7--7--7--7-|---6--6--6--6-|
D|------------------|------------------|--------------|--------------|
A|------------------|------------------|--------------|--------------|
E|-10--10--10--10---|-12--12--12--12---|-7--7--7--7---|-5--5--5--5---| 

-------------------------------------------------------------------------------

[PRE-CHORUS]
e|--------------------------|--------------------------|
B|--------------------------|--------------------------|
G|---4--4--4--4--4--4--4--4-|---6--6--6--6--6--6--6--6-|
D|--------------------------|--------------------------|
A|--------------------------|--------------------------|
E|-3--3--3--3--3--3--3--3---|-5--5--5--5--5--5--5--5---|

e|--------------------------|--------------------------|
B|--------------------------|--------------------------|
G|---7--7--7--7--7--7--7--7-|---4--4--4--4--4--4--4--4-|
D|--------------------------|--------------------------|
A|--------------------------|--------------------------|
E|-7--7--7--7--7--7--7--7---|-3--3--3--3--3--3--3--3---|

e|--------------------------|--------------------------|
B|--------------------------|--------------------------|
G|---4--4--4--4--4--4--4--4-|---6--6--6--6--6--6--6--6-|
D|--------------------------|--------------------------|
A|--------------------------|--------------------------|
E|-3--3--3--3--3--3--3--3---|-5--5--5--5--5--5--5--5---|

e|--------------------------|--------------------------|
B|--------------------------|--------------------------|
G|---7--7--7--7--7--7--7--7-|---6--6--6--6--6--6--6--6-|
D|--------------------------|--------------------------|
A|--------------------------|--------------------------|
E|-7--7--7--7--7--7--7--7---|-5--5--5--5--5--5--5--5---|

e|---------------|
B|---------------|(pause)
G|---6--6--6--6--|
D|---------------|
A|---------------|
E|-5--5--5--5--5-|

-------------------------------------------------------------------------------

[CHORUS]
e|--------------|------------------|--------------|--------------|
B|--------------|------------------|--------------|--------------|
G|---4--4--4--4-|---11--11--11--11-|---7--7--7--7-|---6--6--6--6-|
D|--------------|------------------|--------------|--------------|
A|--------------|------------------|--------------|--------------|
E|-3--3--3--3---|-10--10--10--10---|-7--7--7--7---|-5--5--5--5---|

e|--------------|------------------|--------------|--------------|
B|--------------|------------------|--------------|--------------|
G|---4--4--4--4-|---11--11--11--11-|---6--6--6--6-|---6--6--6--6-|
D|--------------|------------------|--------------|--------------|
A|--------------|------------------|--------------|--------------|
E|-3--3--3--3---|-10--10--10--10---|-5--5--5--5---|-5--5--5--5---|

e|--------------|------------------|--------------|--------------|
B|--------------|------------------|--------------|--------------|
G|---4--4--4--4-|---11--11--11--11-|---6--6--3--3-|---7--7--7--7-|
D|--------------|------------------|--------------|--------------|
A|--------------|------------------|--------------|--------------|
E|-3--3--3--3---|-10--10--10--10---|-5--5--2--2---|-7--7--7--7---|

e|----------|
B|----------|
G|-11--9--4-|
D|----------|
A|----------|
E|-10--9--3-|

-------------------------------------------------------------------------------

[PENULTIMATE CHORUS]
e|-----------

How Can It Be chords – Lauren Daigle V3

 Intro:  Cadd9 Em D  (2x)

Verse 1
 Cadd9 D 
   I  am  guilty
 Cadd9 D                 
   Ashamed of what I've done;  what I've become
 Cadd9 D      
   These hands are dirty
 Cadd9 D Cadd9 Em D 
   I dare not lift them up   to the Holy one

Chorus
 G Am 
  You plead my cause -   You right my wrongs
 G/B Cadd9   
  You break my chains -    You overcome
 G Am 
  You gave Your life -   To give me mine
 G/B Cadd9 
  You say that I am free
        D G Am 
   How can it be
               G/B Cadd9  
   How can it be

Verse 2
 Cadd9 D 
  I've been hiding
 Cadd9 D 
  Afraid I've let you down;  inside I doubt
 Cadd9 D 
  That You could love me
 Cadd9 D Cadd9 Em D 
  But in Your eyes there's only grace now

(Chorus)

Bridge
 G/B C D 
  Though I fall, You can make me new
 G/B C D 
  From this death I will rise with You
 G/B C D 
  Oh the grace reaching out for me
 G/B C D G/B C D 
  How can it be     How can it be

Chorus 2
 G Am 
  You plead my cause -   You right my wrongs
 Em D 
  You break my chains -    You overcome
 G Am 
  You gave Your life -   To give me mine
 G/B Cadd9 D 
  You say that I am free
  G Am 
  You plead my cause -   You right my wrongs
 G/B Cadd9   
  You break my chains -    You overcome
 G Am 
  You gave Your life -   To give me mine
 G/B Cadd9 
  You say that I am free
        D G Am 
   How can it be
               G/B Cadd9     
   How can it be

Outro:
 Cadd9 Em D G

Light Of The World chords – Lauren Daigle V2

 F# 
 The world waits for a miracle

  B 
 The heart longs for a little bit of hope
 
  D#m C# F#       
 O come O come Emmanuel


  F# 
 A child prays for peace on earth
 
  B 
 And Shes calling out from a sea of hurt 

  D#m C# F# 
 O come O come Emmanuel


 
     G#m D#m B G#m D#m B C# 
 And Can you hear the angels singing



 
 D#m B F# C# 
Glory --- to the light of the world

 D#m B F# C# G#m D#m B 
Glory --- the light of the world is here




  F# 
The drought breaks with the tears of a mother

  B 
A babys cry is the sound of love come down
      
        D#m C# F# 
Come down come down Emmanuel


 
  F# 
He is the song for the suffering

  B D#m 
He is Messiah, the prince of peace has come
  
       C# F# 
He has come Emmanuel



 D#m B F# C# 
Glory --- to the light of the world

 D#m B F# C#     
Glory --- to the light of the world
 
 D#m B F# C# 
Glory --- to the light of the world

 D#m B F# C#     
Glory --- to the light of the world 
 

           
              F# 
 For all who wait
    
              B 
 For all who hunger

           D#m 
 For all whove pained

             C# 
 For all who wonder
      
              F# 
 Behold your King
   
            B 
 Behold Messiah
 
    D#m B 
 Emmanuel, Emmanuel




  D#m B F# C# 
 Glory --- to the light of the world

  D#m B F# C#     
 Glory --- to the light of the world 

  D#m B F# C# 
 Glory --- to the light of the world
        
               F# 
 Behold your King
   
            B 
 Behold Messiah
 
    D#m C# 
 Emmanuel, Emmanuel




  F# 
 The world waits for a miracle

  B 
 The heart longs for a little bit of hope
 
  D#m C# F#       
 O come O come Emmanuel

Light Of The World chords – Lauren Daigle

 Capo 2


   E 
 The world waits for a miracle

  A 
 The heart longs for a little bit of hope
 
  C#m B E       
 O come O come Emmanuel


  E 
 A child prays for peace on earth
 
  A 
 And Shes calling out from a sea of hurt 

  C#m B E 
 O come O come Emmanuel


 
     F#m C#m A F#m C#m A B 
 And Can you hear the angels singing



 
 C#m A E B 
Glory --- to the light of the world

 C#m A E B F#m C#m A 
Glory --- the light of the world is here




  E 
The drought breaks with the tears of a mother

  A 
A babys cry is the sound of love come down
      
        C#m B E 
Come down come down Emmanuel


 
  E 
He is the song for the suffering

  A C#m 
He is Messiah, the prince of peace has come
         B E 
He has come Emmanuel



 C#m A E B 
Glory --- to the light of the world

 C#m A E B     
Glory --- to the light of the world
 
 C#m A E B 
Glory --- to the light of the world

 C#m A E B     
Glory --- to the light of the world 
 

           
              E 
 For all who wait
    
              A 
 For all who hunger

           C#m 
 For all whove pained

             B 
 For all who wonder
      
              E 
 Behold your King
   
            A 
 Behold Messiah
 
    C#m A 
 Emmanuel, Emmanuel




  C#m A E B 
 Glory --- to the light of the world

  C#m A E B     
 Glory --- to the light of the world 

  C#m A E B 
 Glory --- to the light of the world
        
               E 
 Behold your King
   
            A 
 Behold Messiah
 
    C#m B 
 Emmanuel, Emmanuel




  E 
 The world waits for a miracle

  A 
 The heart longs for a little bit of hope
 
  C#m B E       
 O come O come Emmanuel

Same Day Different Bottle chords – Lauren Alaina

 Same Day Different Bottle by Lauren Alaina
2013


Standard Tuning
Capo on the 4th fret


Chords:

 Am :    x02210
 C :     x32010
 D :     xx0232
 F :     x33211
 G :     320003 or 320033


 Am        ( C )              D 
 Oh Jim Beam, makes you mean
             F Am 
 A couple shots and you'll be lookin' for a fight
               ( C )               D 
 When I look into those bourbon eyes
           F 
 I see a man that I don't recognize

 G F            ( C ) 
 I wish you would be a little bit stronger
 G F 
 And I wish I could turn that whiskey into water


 C G 
 Same day, different bottle
         Am                  ( C )                 F 
 Every night I pray you'll pour it down the drain
      C G 
 I know, the truth is hard to swallow
                      Am           ( C )      F      
 But you can't keep going on and on and on this way
                        C G F 
 Same day, different bottle 


 Am                 ( C )                D 
 I've watched you try to drown the past
             F Am 
 But those demons just keep draggin' you back
        ( C )                      D 
 In my heart there's still no down
                  F 
 Someday you'll hit your knees, you'll finally bottom out

 G F                  ( C )
 I wish so bad, to help you stop the bleeding
 G F 
 But you get so mad when I ask you what you're needing


 C G 
 Same day, different bottle
         Am                   ( C )                 F 
 Every night I pray you'll pour it down the drain
      C G 
 I know, the truth is hard to swallow
                      Am           ( C )       F      
 But you can't keep going on and on and on this way
                        C G F C G Am C 
 Same day, different bottle 


 C G 
 Same day, Different bottle
               Am C F 
 It's just a temporary numbing of the pain
            C G 
 Yeah, I know, the truth is hard to swallow
                      Am C F 
 But you can't keep going on, and on, and on, this way 
                Am C F 
 We can't keep hurting on, and on, and on, this way, yeah
                       C G F 
 Same Day, Different Bottle
  C G F 
 Oh, Oh, Oh