Tag: Lead

I Can Hear My Savior Calling – Where He Lead Me chords – Hillsongs

 Verse 1
 C F G7 
I can hear my Savior calling
                      C 
I can hear my Savior calling
               C7 F 
I can hear my Savior calling
          C G7 C 
Take thy cross and follow follow Me


Chorus
                   F G7 
Where He leads me I will follow
                           C 
Where He leads me I will follow
                   C7 F 
Where He leads me I will follow
         C G7 C 
I'll go with Him with Him all the way


Verse 2
 C F G7 
I'll go with Him through the garden
                              C 
I'll go with Him through the garden
                  C7 F 
I'll go with Him through the garden
          C G7 C 
I'll go with Him with Him all the way 


Verse 3
 C F G7 
I'll go with Him through the judgment
                              C 
I'll go with Him through the judgment
                  C7 F 
I'll go with Him through the judgment
          C G7 C 
I'll go with Him with Him all the way 


Verse 4
 C F G7 
He will give me grace and glory
                           C 
He will give me grace and glory
                 C7 F 
He will give me grace and glory
          C G7 C 
And go with me with me all the way 

Back To You chords – Micah Peacock

 I really love this song so I decided to try and figure out the chords. I know some 
are wrong but can't quite figure out what it is supposed to be so leave a comment 
and I will edit it. CAPO 2


 Am G 
Brokenness Your sacrifice
 Am D 
My pride still binds my hands
 Am G 
So arrest me with the truth of You
            Em D 
Break this man
 Am G 
I beg for You to lead the way
 Am D 
Then push You to the side
 Am G 
So let the Word inside my heart
         Em D 
Be my guide

 G 
Bring my wand’ring heart
         C D 
Back to You, back to You
 G 
Take me from afar
          C D 
Back to You, back to You
 Am7 G 
Fix my eyes upon Your ways
 C D 
Teach my tongue to sing Your praise
 Am G C D Am G Em D 
You are holy, You are holy, God

 Am G 
Your majesty is all around
 Am D 
Your handiwork the skies
 Am G 
Our lives are but Your broken ground
            Em D 
So let us rise

 G 
Bring my wand’ring heart
          C D 
Back to You, back to You
 G 
Take me from afar
          C D 
Back to You, back to You
 Am7 G 
Fix my eyes upon Your ways
 C D 
Teach my tongue to sing Your praise
 Am G C D Em    
You are holy, You are holy, God

          C 
Let my guilt be Your glory

         G 
Let my fault be Your fame
         Em 
Let my life tell Your story
          D 
For the sake of Your name
      C 
No more are we guilty
         G 
And no more are we slaves
       Em 
For Jesus, Son of glory
       D 
Has broken every chain
   
           Am G   
And I need You
       Am C 
I need You

 G 
Bring my wand’ring heart
          C D 
Back to You, back to You
 G 
Take me from afar
          C D 
Back to You, back to You
 Am7 G 
Fix my eyes upon Your ways
 C D 
Teach my tongue to sing Your praise
 Am G C D Am G Em D 
You are holy, You are holy, God

Lead Me Home chords – Fm Radio

 Such a simple yet beautiful song. Melancholic yet peaceful. Song follows an almost hymnal pattern.

Key:  G G           
Let the rain come wash away
             C G 
Trembling fears and toiling days
         C G 
Let the river overflow
              D7 
And lead me home
          G 
Lead me home


            G 
I am the sweet hush morning calm
       C G 
I am heavens open arms
         C G 
I am a thousand winds that blow
          D7 
Lead me home
         G 
Lead me home


            Em C G 
All these roads I've traveled on
          Em C G 
Lead me back to where I've come
        Em C G 
And I know I'm not alone
               D7 
They lead me home
          G 
Lead me home


         G 
I will give my love to you
                 C G 
Like fields of flowers sweet perfume
                C G 
And like the gleam of fallen snow
          D7 
Lead me home
          G 
Lead me home


         G  
Do not weep, I am not gone
         C G 
Feel me in the rising sun
              C G 
Through the valleys wide and low
          D7 
Lead me home
          G 
Lead me home


           Em C G  
When the darkness overcomes
         Em C G 
Just remember all my love
               Em C G  
And when you know it's time to go
                D7 
I'll lead you home
           G 
Lead you home


          G 
We all exist in everyone
          C G 
Memories of the world we spun
        C G 
I am ready, rock me slow
              D7 
And lead me home
          G 
Lead me home

Lead My Follow chords – Damon Johnson

 To get the way Damon Johnson plays this live, tune down a 1/2 step (D# G# C# F# A# d#).

Chords used: 
 Dm        x  x  0  2  3  1
 Am        x  0  2  2  1  0
 Em        0  2  2  0  0  0
 Cadd9     x  3  2  0  3  3
 G         3  2  0  0  3  3
D*       x  5  7  7  7  5
 D#m       x  5  7  7  6  5
 A         x  0  2  2  2  0

Intro:   Dm Am Dm Am 

Em  Cadd9  Em  Cadd9  Em  A (hammer pinky on e string, lift, then hammer on B string, 
then hammer back on B and e)

 Cadd9 G 
Shine a different light on a piece of me
 Cadd9 G 
Right before these eyes you delicately breathe
 Cadd9 D *
On this killing floor, everything I see
                  D#m Em 
Is living and hanging over me


Chorus:
        Cadd9 Em 
It's alright, in my mind
           A Em 
When you lead my follow
               Cadd9 Em 
Everything's alright, every time
          A (hammer e, lift, hammer B string, then hammer back on B and e)
When you lead my follow


 Cadd9 G 
You play Jesus Christ to my Judas soul
 Cadd9 G 
After all this time, the less I know
 Cadd9 D *
From this killing floor, feel it in my head
       D#m Em 
In time we all are led


Chorus:
        Cadd9 Em 
It's alright, in my mind
           A Em 
When you lead my follow
               Cadd9 Em 
Everything's alright, every time
          A (hammer e, lift, hammer B string, then hammer back on B and e)
When you lead my follow


Bridge:

 Cadd9 
Rain...
 Em 
Can never fall too far
 Cadd9 
I'm drowning...
                Am 
Don't let me bring you down
     Em 
With me

 Cadd9 Em Cadd9 Em A  (hammer E, lift, hammer B string, then hammer back on B and E)


 Cadd9 G 
Shine a different light on a piece of me
 Cadd9 G Em 
Right before these eyes delicately breathe


            Cadd9 Em 
It's all alright, in my mind
           A Em 
When you lead my follow
               Cadd9 Em 
Everything's alright, every time
           A Em 
When you lead my follow
      Cadd9 Em 
I'm alright, alright
           A 
When you lead my follow
           A 
When you lead my follow

Outro:   Dm Am Dm Am

Lead Me To The Cross chords – Praise And Worship

 (Intro)
 Bm  -  A  -  G  -  D/F# ,  A/E Bm  -  A  -  G 


(Verse 1)
 Bm A G   
Savior I come quiet my soul
       D  -  A/C# 
remember,
 Bm A          
Redemptions hill, where your blood
 G D  -  A/C# 
Spilled, for my ransom


(Pre-Chorus)
 Em A 
Everything I once held dear
   Bm7 A G 
I count it all as loss


(Chorus)
                 G 
Lead me to the cross
                       D A 
Where your love poured out
                                G 
Bring me to my knees 
              D A  
Lord I lay me down
 Bm G 
Rid me of myself
            D A 
I belong to you
           Em 
Oh lead me 
 G A Bm 
Lead me to the cross

Fill:  G  -  D  -  Bm  -  G  -  D 


(Verse 2)
 Bm A 
You were as I 
               Gmaj7 
Tempted and tried
 D  -  A/C# 
Human
 Bm A 
The word became flesh 
                                  G 
Bore my sin and death
                    D A/C# 
Now your risen


(Pre-Chorus)     
 Em A 
Everything I once held dear
   Bm7 A G 
I count it all as loss


(Chorus)
                 G 
Lead me to the cross
                       D A 
Where your love poured out
                                G 
Bring me to my knees 
              D A  
Lord I lay me down
 Bm G 
Rid me of myself
            D A 
I belong to you
           Em 
Oh lead me 
 G A Bm 
Lead me to the cross


(Bridge)
                 D  -  D/G  -  A 
To your heart  (4x)


(Chorus)
                 G 
Lead me to the cross
                       D A 
Where your love poured out
                                G 
Bring me to my knees 
              D A  
Lord I lay me down
 Bm G 
Rid me of myself
            D A 
I belong to you
           Em 
Oh lead me 
 G A Bm 
Lead me to the cross

Lead Me Lord chords – Praise And Worship

 LEAD ME LORD

Intro:  D  –  DM7  –  G  –  A7sus  –  A7 D  –  Dm7 
Lead me Lord
                         A G 
Lead me by the hand and make me face the rising sun
                         A A7 F#m 
Comfort me through all the pain that life may bring
                                    F#7 Bm 
There’s no other hope that I can lean upon
                                         Em A7 Asus  –  A7 
Lead me Lord, lead me all my life

 D  –  Dm7 
Walk by me
                         A G 
Walk by me across the lonely roads of everyday
 A A7 F#m 
Take my arms and let your hands show me the way
 F#7 Bm 
Show the way to live inside your love
 Em A7 Asus  –  A7 
Lead me Lord, lead me all my life

                 A7 D  –  DM7 G D 
*You are my light, you’re the lamp upon my feet
                                 G A F#m 
All the time my Lord I need you there
                        
 A7sus   -  A7 D  –  DM7 G D 
You Are my life, I cannot live alone
                                         G A F#m 
Let me stay by your guiding love
                                     B7 Em  –  A7 
All through my life
                                                         D  –  DM7  –  G  –  A7sus  –  A7 
Lead me Lord

                                                         D  –  DM7 
Lead me Lord
                         A G 
Even though at times I’d rather go along my way
                             A A7 F#m 
Help me take the right direction, take Your road
                    F#7 Bm 
Lead me Lord and never leave my side
                                                 Em A7  –  A7sus 
All my days, all my life 

(* 2x)

                                                 F#m 
All through my life, all through my days
                                 B7 Em  –  A7 D 
Lead me Lord, All my life

Lead The Fight On chords – He Is We

 -------------------------------------------------------------------------
                   Lead The Fight On - He Is We
-------------------------------------------------------------------------

 ***************************************************************
 *     "markchordz" 5 Years in the road(UG)                    *
 * Thanks for supporting my tabs here in Ultimate-guitar.com   *
 *                                                             *
 * Text Me: 09099719466 (Smart)                                *             
 * Text Me: 09099719466 (Smart)                                *
 ***************************************************************

************************************************************************** 
* Read first: Pls Rate, leave some comments and be sure that your        *
* guitar "tune" well before playing this song..                          *
*                                                                        *
*            All Rights Reserved © Copyright 2013                        *
************************************************************************** 

Intro:

 Em ,  G ,  Em ,  G Em 
You know every part of me


 G 
I know every part of you


 Em 
Tell me a story with an ending that makes me smile


 G 
Tell me you'll stand by me longer than just awhile


 Em 
Your fight is what I'm believing for


 G 
My fight is hand in hand with yours


 Em 
Just a couple of kids who found a voice,


 G 
who found a choice,  We are...


Chorus:


 Em 
We're the ones with the scars and the stripes


 C 
Been here forever too our battle is worth the fight


 G D 
Not the little kids you knew before, We are...


 Em 
Broken hearts with the motive to move the world


 C 
Doesn't matter your past, all my boys and girls


G                                 D (Strum once and let ring)
With the stories tell tied in our hands



Lead the fight on


(Intro chords  + Piano)


Our lives may not be the same
Ourselves found in a single name
A name of hope for those who've lost their way
Just a glance at the moment they'll be okay
Your past makes you so strong
My past shows what I've done wrong
Gotta rise from the ashes and paint this town
Let's paint this town, We are...


(Chorus)


Bridge:


 C D 
I'm fire, I'm pain


 Em D 
Been through hell, been through rain


 C D 
I'm tired, I'm shamed


 Em D 
Can't stop me anyway


 C D 
I'm driven, regardless


 Em D    
I'm lifting the helpless


 C D 
My hands are, in yours now


 Em D C  (Strum once and let ring) 
Lets change this world somehow 


 D Em C G C D 
      We're the ones with the scars and the stripes forever and ever


(Chorus)


Outro:


 Em ,  G ,  Em ,  G ,  Em 


Rock En ROLL!

Lead The Fight On chords – He Is We V2

 Intro:
 Em ,  G ,  Em ,  G   (With piano)

 Em 
You know every part of me
 G 
I know every part of you
 Em 
Tell me a story with an ending that makes me smile
 G 
Tell me you'll stand by me longer than just awhile
 Em 
Your fight is what I'm believing for
 G 
My fight is hand in hand with yours
 Em 
Just a couple of kids who found a voice,
 G 
who found a choice,  We are...


Chorus:

 Em 
We're the ones with the scars and the stripes
 C 
Been here forever too our battle is worth the fight
 G D 
Not the little kids you knew before, We are...
 Em 
Broken hearts with the motive to move the world
 C 
Doesn't matter your past, all my boys and girls
G                                 D (Strum once and let ring)
With the stories tell tied in our hands

Lead the fight on


(Intro chords  + Piano)


Our lives may not be the same
Ourselves found in a single name
A name of hope for those who've lost their way
Just a glance at the moment they'll be okay
Your past makes you so strong
My past shows what I've done wrong
Gotta rise from the ashes and paint this town
Let's paint this town, We are...


(Chorus)


Bridge:
 C D 
I'm fire, I'm pain
 Em D 
Been through hell, been through rain
 C D 
I'm tired, I'm shamed
 Em D 
Can't stop me anyway
 C D 
I'm driven, regardless
 Em D    
I'm lifting the helpless
 C D 
My hands are, in yours now
Em               D         C (Strum once and let ring) 
Lets change this world somehow 
 D Em C G C D 
      We're the ones with the scars and the stripes forever and ever


(Chorus)


Outro:
 Em ,  G ,  Em ,  G ,  Em 


Jessen Shay

Jesse Ar Tabs by Said The Whale

 This is the only tab for Jesse, Ar I have seen on the internet so far. It's a great song 
and it's not that hard to play, just listen to it to figure out the rythm and if you 
see anything wrong with this tab don't hesitate to point it out!


Intro (Rythm)

E----------------------------------|
B----------------------------------|
G----------------------------------|
D----------------------------------|   x4
A---7---7---7---7---7---7---7---7--|
E-0---0---0---0---0---0---0---0----|

E------------------|
B------------------|
G-1-1-1-1-1-1-1-1--|
D-2-2-2-2-2-2-2-2--|   palm muted, x2
A-2-2-2-2-2-2-2-2--|
E-0-0-0-0-0-0-0-0--|


Intro (Lead)

E----------12-11------------------------|
B-12-14----------14-12-------12---------|
G-------13-------------13-11----13-11-9-|
D---------------------------------------|
A---------------------------------------|
E---------------------------------------|


Verse (Rythm)

Jesse came from Arkansas...
E----------------------------------|
B----------------------------------|
G-1-1--1-1--1-1--6-6-6-6-----------|
D-2-2--2-2--2-2--7-7-7-7-----------| x8 (No singing the first 4 times, the lead plays 
during these 4 times)
A-2-2--2-2--2-2--7-7-7-7-----------|
E-0-0--0-0--0-0--5-5-5-5-----------|


Verse (Lead)

E----------------------------------12---------------------------------|
B-12-12-12-12-12-12-12-12-12-12-14----14-12---------------------------|
G-------------------------------------------13-13-13-13-13-13-13-13---|
D---------------------------------------------------------------------|
A---------------------------------------------------------------------|
E---------------------------------------------------------------------|

E---------------------------------------------------------------------------|
B----------------12----------------------------------------------12---------|
G-11-11-11-11-13----13-11-------------------------11-11-11-11-13----13-11---|
D-------------------------14-14-14-14-14-14-14-14---------------------------|
A---------------------------------------------------------------------------|
E---------------------------------------------------------------------------|

E-------------------------------------14-12-------12|
B-------------------------------------------14-12---|
G---------------------------------------------------|
D-14-14-14-14-14-14-14-14-14-14-14-14---------------|
A---------------------------------------------------|
E---------------------------------------------------|


Pre-chorus

So he headed out to Edmonton...
E------------------|
B------------------|
G-6-6-6-6-6-6-6-6--|
D-7-7-7-7-7-7-7-7--|  x4
A-7-7-7-7-7-7-7-7--|
E-5-5-5-5-5-5-5-5--|


Verse (Rythm)

Didn't take a couple months...
E----------------------------------|
B----------------------------------|
G-1-1--1-1--1-1--6-6-6-6-----------|
D-2-2--2-2--2-2--7-7-7-7-----------| x6 (No singing the first 2 times)
A-2-2--2-2--2-2--7-7-7-7-----------|
E-0-0--0-0--0-0--5-5-5-5-----------|


Pre-chorus

So he brought her back to Little Rock...
E------------------|
B------------------|
G-6-6-6-6-6-6-6-6--|
D-7-7-7-7-7-7-7-7--|  x4
A-7-7-7-7-7-7-7-7--|
E-5-5-5-5-5-5-5-5--|


Chorus

Restless eyes they never sleep for too long...
E---x---x---x----------------------|
B---x---x---x----------------------|
G---x-9-x---x-8-8-9-9--------------|                  7
D-9-x-x-x-7-x-x-x-x-x--------------| x10 (He stops at x the 10th time)
A-x-x-7-x-x-x-6-6-7-7--------------|                  5
E-7-x---x-5-x----------------------|


Verse (Rythm)

Didn't take a couple months...
E----------------------------------|
B----------------------------------|
G-1-1--1-1--1-1--6-6-6-6-----------|
D-2-2--2-2--2-2--7-7-7-7-----------| x6 (No singing the first 2 times)
A-2-2--2-2--2-2--7-7-7-7-----------|
E-0-0--0-0--0-0--5-5-5-5-----------|


Verse (Lead)

E----------------------------------12----------------

Your Love Is Driving Me Crazy Chords – Sammy Hagar

 Let me know if you need help with any chords...

Intro:  (  A B/A E/A   ) x4

 A B/A E/A A B/A E/A     
I don't mind, when you act your age
     A B/A E/A A B/A E/A C#m E 
It suits me fine, that you treat me like a child

        A B/A - E/A A B/A E/A         
And I can't deny,    when I'm with you that you
   A B/A E/A A B/A E/A C#m E 
Step outside, of all those fears locked up inside

 A E E = C#m = B = A E 
Your love is driving me crazy,        your love just takes me away
 A F#m E C#m B 
Your love is driving me crazy, takes me all the way

   A B/A E/A A B/A E/A     
What I  like, is what you've got to offer
  A B/A E/A A B/A E/A C#m E 
Just my type,  I don't mind playing on the edge

 A E E = C#m = B = A E 
Your love is driving me crazy,        your love just takes me away
 A F#m E C#m B 
Your love is driving me crazy, takes me all the way, yeah

  D A/C# Bm G   -      A 
Lead me to forbidden doors, you know I'm yours
  D A/C# Bm E 
Yeah you've got it, yeah I want it, don't you know it baby

mini solo over:  E

  A B/A E/A A B/A E/A     
Right on time, a tight fit right on the money
  A B/A - E/A A B/A E/A C#m E 
So sublime,  hot sweet cherries on the vine

 A E E = C#m = B = A E 
Your love is driving me crazy,        your love just takes me away
 A F#m E C#m B 
Your love is driving me crazy, takes me all the way, yeah

 A E E = C#m = B = A F#m E 
Your love is driving me crazy,       your love just takes me away
 A E E = C#m = B = A F#m E 
Your love is driving me crazy,       your love just takes me away, oh yeah
 A E E = C#m = B = A F#m E 
Your love, your love,         your love just takes me away

When These Mountains Were The Seashore Chords – Hawksley Workman

 When These Mountains Were The Seashore : - Hawksley Workman
Jade Evoy

            G 
when these mountains were the seashore
            C Am 
when this desert was the ocean floor
          G Em 
we would swim beneath the star filled sky
         C G D G 
we were lovely fish alone in the night

before the cities met the heavens
i mean way, way, way back before then
we would sing as if it were a prayer
we were lovely fish who dreamed to dare

CHORUS
 C G D G 
before clocks kept track of the time
      C G D G 
when day lead gracefully into the night
 C G C Em 
before two simple fish who dreamed to fly
 C D Em D G  
created their sadness and new reasons to cry

when these mountains were the seashore
when this desert was the ocean floor
you and i were not born yet
it's too long ago now even to forget

when the blue sky found it's courage
to love and raise and nourish
back when life was simply meant to be
our love and care alone in the sea

CHORUS
before clocks kept track of the time
when day lead gracefully into the night
before two fish that dreamed to fly
got suspicious of a miracle
and asked themselves why

when we looked up through the water
at time and space and wondered
what it might be like to live up there
to leave our fins and gills for the air

CHORUS
before clocks kept track of the time
before the poems began to rhyme
before two simple fish that learned to cry
got suspicious of their love and asked each other why

Eternity Chords – Imelda May

 #----------------------------------PLEASE NOTE--------------------------------#
#This file is the author's own work and represents their interpretation of the#
#song. You may only use this file for private study, scholarship, or research.#
#-----------------------------------------------------------------------------#
#-----------------------------------------------------------------------------#
#   If you like this tab, please rate it above.  Thank you.
#-----------------------------------------------------------------------------#

 John Shaw (jashaw@shaw-web.net)
Artist: Imelda May
Song: Eternity

Intro:  D D C A D D C A D 
Since I met you baby  I feel that you somehow saved (me)
          G F G F     
You're smile lets me know that you're heart warmly glows
 D C D D C D 
It took forever to find eternity  Took forever to find eternity

 D C A D D C A D 
Time flew by me  Now I understand you see
          G F G F     
Time played a waiting game, It seems you felt the same
 D C D 
Oh it took forever to find eternity... Yeah yeah yeh
 D C D 
It took forever to find eternity

 Bb Dm F D Bb Dm F D 
When love passes by  No-one really understands why
 Bb Dm F D 
But time will help you'll see
 Bb A 
Another wait, it's not too late to find eternity

 D C A D D C A D 
Oh love is now set free  The waiting game was the key
          G F G F     
And when I see you standing there, Everything now seems fair
 D C D 
It took forever to find eternity... Yeah yeh eh
 D C D 
It took forever to find eternity

Lead Break (Verse)

 Bb Dm F D Bb Dm F D 
When love passes by  No-one really understands why
 Bb Dm F D 
But time will help you'll see
 Bb A 
Another wait, it's not too late to find eternity

(Drums- N/C)
Oh love is now set free The waiting game was the key
          G F G F     
And when I see you standing there Everything now seems fair
 D C D 
It took forever to find eternity... Yeah yeah yeh
 D C D 
It took forever to find eternity

 D C A D C A  
It took forever,      It took forever  
 D C D 
It took forever to find eternity

Woke Up Older Tabs by The Wonder Years

 -----------------------------------------------------------------------------
                             WOKE UP OLDER - The Wonder Years
-----------------------------------------------------------------------------
Tuning: Drop C#

Okay, I've got most of this down except for all the dissonant parts like the pre-chorus 
lead but I did my best.

Intro:
eb|------8--8-----------------------|
Bb|-6--6------6-8------8---8---8-10-|
Gb|---------------------------------|
Db|---------------------------------|
Ab|---------------------------------|
Db|---------------------------------|
  |                                 |
eb|---------------------------------|
Bb|---------------------------------|
Gb|-3-3-3-7-7-7-5-5-5-5-5---5-5-5---|
Db|-3-3-3-7-7-7-5-5-5-5-5-0-5-5-5-0-|
Ab|-1-1-1-5-5-5-3-3-3-3-3-0-3-3-3-0-|
Db|-----------------------0-------0-|
*rhythm guitar comes in after 2nd time

Verse:
eb|----8---------8------------|
Bb|---6---------6--8----------|
Gb|-7-------------------------|x2
Db|---------------------------|
Ab|---------------------------|
Db|---------------------------|

eb|-8--8--8--8-10-8--8--8--8---|
Bb|--10-10-10------10-10-10-10-|
Gb|----------------------------|
Db|----------------------------|
Ab|----------------------------|
Db|----------------------------|
  |                            |x2
eb|----------------------------|
Bb|----------------------------|
Gb|----------------------------|
Db|----------------------------|
Ab|-8-------------/8-----------|
Db|-8--------------------------|

Pre-Chorus:
eb|-----------------------------------|-----------------------------------|
Bb|-----------------------------------|-----------------------------------|
Gb|-----------------------------------|-----------------------------------|
Db|------5-5-5-5-5-5-8-8-8-8-7-7-7-7--|------5-5-5-5-5-5-8-8-8-8-10101010-|
Ab|-10/--5-5-5-5-5-5-8-8-8-8-8-8-8-8--|-10/--5-5-5-5-5-5-8-8-8-8-10101010-|
Db|------5-5-5-5-5-5-8-8-8-8-7-7-7-7--|------5-5-5-5-5-5-8-8-8-8-10101010-|
  |                                   |                                   |
eb|--------0---0---0--8---8---8---8---|--------0---0---0--8---8---6--5----|
Bb|-------6-6-6-6-6-6--6-6-6-6-6-6-6-6|-------6-6-6-6-6-6--6-6-6-6--------|
Gb|------7---7---7---7--7---7---7---7-|------7---7---7---7--7---7---------|
Db|-----------------------------------|-----------------------------------|
Ab|-----------------------------------|-----------------------------------|
Db|-----------------------------------|-----------------------------------|

Chorus: x2
eb|--------------------------------------------------|
Bb|--------------------------------------------------|
Gb|-----------5--5--5-5-5-5--------------------------|
Db|--0--0-0-0-5--5--5-5-5-5-5--5--5-5-5-8--8--8-8-8--|
Ab|--0--0-0-0-3--3--3-3-3-3-5--5--5-5-5-8--8--8-8-8--|
Db|--0--0-0-0---------------5--5--5-5-5-8--8--8-8-8--|
  |                                                  |
eb|--------------------------------------------------|
Bb|--------------------------------------------------|
Gb|--7--7-7-7-9--9--9-9-9-9-12-12-12/14-10-10-101010-|
Db|--x--x-x-x-x--x--x-x-x-x-x--x--x--x--x--x--x-x-x--|
Ab|--5--5-5-5-7--7--7-7-7-7-10-10-10/12-8--8--8-8-8--|
Db|--------------------------------------------------|

1st Ending:                            2nd Ending:
eb|-----------------------------------|----------------------------|
Bb|-----------------------------------|----------------------------|
Gb|---------5-5-5-5-3-3-3-3-3-3-3-3---|----------------------------|
Db|-3-3-3-3-5-5-5-5-3-3-3-3-3-3-3-3---|-5-5-5-5-5-5-58--8-8-8-8888-|
Ab|-3-3-3-3-3-3-3-3-1-1-1-1-1-1-1-1---|-5-5-5-5-5-5-58--8-8-8-8888-|
Db|-3-3-3-3---------------------------|-5-5-5-5-5-5-58--8-8-8-8888-|
  |                                   |                            |
eb|-----------------------------------|---80--0---80--0---80--0----|
Bb|-----------------------------------|--6---6-6-6--

Called Me Higher Chords – All Sons And Daughters V2

 Called Me Higher
Key of Ab
© 2012 Integrity's Praise! Music 
CCLI # 5887880

[CAPO 1st Fret]

VERSE 1
 C F 
I could just sit, I could just sit and wait for all your goodness, hope to feel Your presence
 C F      
I could just stay, I could just stay right where I am and hope to feel You, hope 
to feel something again
 C F 

VERSE 2
 C F 
I could hold on, I could hold on to who I am and never let You change me from the inside
 C F  
I could be safe, I could be safe here in Your arms and never leave home, never let these walls down

CHORUS 1
     Am C 
But You have called me higher, You have called me deeper
          F 
And I'll go where You will lead me, Lord
     Am C 
But You have called me higher, You have called me deeper
          F 
And I'll go where You will lead me, Lord, You'll lead me
 C F  
  You'll lead me Lord

Repeat VERSE 2 & CHORUS

BRIDGE
 Dm F C 
  I will be Yours, oh,  I will be Yours for all my life
 Dm F C 
  I will be Yours, oh,  I will be Yours for all my life

 Dm F C 
  I will be Yours, oh,  I will be Yours for all my life  so let Your mercy, Oh
 Dm F C 
  I will be Yours, oh,  I will be Yours for all my life  so let Your mercy light the path before me
 

CHORUS 2
 Am G/B C C/E 
But You have called me higher, You have called me deeper
          F G  
And I'll go where You will lead me, Lord
 Am G/B C C/E 
But You have called me higher, You have called me deeper
          F G  
And I'll go where You will lead me, Lord
 Am G/B C C/E 
But You have called me higher, You have called me deeper
          F G  
And I'll go where You will lead me, Lord
 Am G/B C C/E 
But You have called me higher, You have called me deeper
          F G  
And I'll go where You will lead me, Lord, You'll lead me
 C F C F C 
  You'll lead me Lord, You'll lead me,  You'll lead me Lord

Tender Chords – Blur V2

 There was a pretty good one already on here but there was an E on the chorus
in that one where I've put a C#m, I think this way is correct. There are a
couple of tabs with the intro on too so I won't bother with that. It's best
to just play around with it if you're playing lead. The chords are pretty
basic. The pattern for the verse can be a bit of a pain at first but other
than that it's all very straight forward.

Verse:
 A 
Tender is the night
 G A 
Lying by your side
 A 
Tender is the touch
    G A 
Of someone that you love too much
 A 
Tender is the day
     G A 
The demons go away
 A 
Lord I need to find
 G A 
Someone who can heal my mind

Chorus:
 A D C    
C'mon, c'mon, c'mon,     get through it
 A C#m D 
C'mon, c'mon, c'mon,     love's the greatest thing
(Repeat once) 

 C#m D 
That we have
 C#m D 
I'm waiting for that feeling
 C#m D 
Waiting for that feeling
 A G A 
Waiting for that feeling to come

Grahams bit : 2x
       A E A 
Oh my baby, oh my baby, oh why, oh my

Verse:
Tender is the ghost
The ghost I love the most
Hiding from the sun
Waiting for the night to come
Tender is my heart
I'm screwing up my life
Oh Lord I need to find
Someone who can heal my mind

Repeat Chorus

Repeat Grahams bit

Verse:
Tender is the night
Lying by your side
Tender is the touch
Of someone that you love too much
Tender is my heart tonight
I'm screwing up my life
Oh Lord I need to find
Someone who can heal my mind

Repeat Chorus

Repeat Grahams bit 6x

Damon plays the chords barred but I think the B and high E strings are open.
That sounds great if you've got the full band playing but if it's just one
guitar, you're better off sticking to the standard chords. 

The Terror Chords – Flaming Lips

 The Flaming Lips
The Terror - Chords
The Terror

Intro (0:01-0:21)

      F#m E F#m F#m F#m E F#m F#m 

Verse 1 (0:21-1:01)

      F#m E F#m 
     However love can help you
      F#m E F#m 
     We are all standing alone
      F#m E F#m 
     The terror's in our heads
      F#m E F#m 
     We don't control the controls

Break 1 (1:01-1:11)

      F#m 

Verse 2 (1:11-1:50)

      F#m E F#m 
     I turn to face the sun
      F#m E F#m 
     We are still standing alone
      F#m E F#m 
     At last we'll sing of the terror
      F#m E F#m 
     It helps us hold the controls

Chorus (1:50-2:30)

            F#m E F#m 
     We'll sing in the sunshine
            F#m E F#m 
     We'll laugh every day
            F#m E F#m 
     We'll sing cause love will save us
          F#m E F#m 
     The sunshine every day

Break 2 (2:30-2:50)

      F#m 

       A second guitar can play this.
     e|---------------------------------------------------------------|
     B|-5---2---5---2---5---2---5---2---5---2---5---2---5---2---3---2-|
     G|---------------------------------------------------------------|
     D|---------------------------------------------------------------|
     A|---------------------------------------------------------------|
     E|---------------------------------------------------------------|

     OR:

     One guitar can play both the rhythm and lead.

     e|-0-------0-------0-------0-------0-------0-------0-------------|
     B|-2---2---2---2---2---2---2---2---2---2---2---2---2---2---3---2-|
     G|-2---2---2---2---2---2---2---2---2---2---2---2---2---2---2---2-|
     D|-4---4---4---4---4---4---4---4---4---4---4---4---4---4---4---4-|
     A|-4---4---4---4---4---4---4---4---4---4---4---4---4---4---4---4-|
     E|-2---2---2---2---2---2---2---2---2---2---2---2---2---2---2---2-|

Chorus (2:50-3:30)

Break 2 x2 (3:30-4:10)

Bridge (4:10-4:49)

      F#m 
     Your voice says yes but I can't go on
      F#m 
     Your voice says yes but I can't go more
      F#m 
     What gives judgment the final word
      F#m 
     When at once the sacred word can't be heard

Break 2 x2 (4:49-5:29)

The song fades out during this last part.

Ancient History Tabs by Hawk Nelson V2

 
Lead: Standard Tuning
Intro (No Part)

Verse 1 (right after the first “nothing at all”)
|---13\8-----------------------------------------------|
|------------6---8-6-----6---6h8---6---6h8-6-----------|
|--------------5-----5-----5---------5-------5---------|
|------------------------------------------------------|
|------------------------------------------------------|
|------------------------------------------------------|

Bridge (There’s no rhyme…)
|--------------------------------------13-12-------|
|--13----13----13----13----15----15----------13-15-|
|-----12----12----12----12----12----12-------------|
|--------------------------------------------------|
|--------------------------------------------------|
|--------------------------------------------------|

Chorus (She don’t want anyone other than…)
|--------------------------------------------------5-5----------------|
|--6-6-----6-6-8-8-6-6-----6-6-8-8-6-6-----6-6-8-8-----8-8-6-6-8-8----|
|------5-5-------------5-5-------------5-5----------------------------|
|---------------------------------------------------------------------|
|---------------------------------------------------------------------|
|---------------------------------------------------------------------|

|--------------------------------------------------5-5-6-5---|
|--6-6-----6-6-8-8-6-6-----6-6-8-8-6-6-----6-6-8-8---------8-|
|------5-5-------------5-5-------------5-5-------------------|
|------------------------------------------------------------|
|------------------------------------------------------------|
|------------------------------------------------------------|

|--------------------------------------------------5-5----------------|
|--6-6-----6-6-8-8-6-6-----6-6-8-8-6-6-----6-6-8-8-----8-8-6-6-8-8----|
|------5-5-------------5-5-------------5-5----------------------------|
|---------------------------------------------------------------------|
|---------------------------------------------------------------------|
|---------------------------------------------------------------------|

|---------------------------------------------------------------------------|
|--6-5---5------------------------------------------------------------------|
|------5---7-5-5h7----------------------------------------------------------|
|---------------------------------------------------------------------------|
|-------------------8-------------------------------------------------------|
|---------------------------------------------------------------------------|

Verse 2 (comes in right after “negotiate a one-way deal, nothing from nothing…”)
|----13--------------------------13----------------------------------------------------|
|----13-x8-(with effects)--------13-x8-(with effects)----------------------------------|
|----10--------------------------10----------------------------------------------------|
|--------------------------------------------------------------------------------------|
|--------------------------------------------------------------------------------------|
|--------------------------------------------------------------------------------------|

Repeat Bridge

Repeat Chorus


Interlude (tremolo picking)
|--------------------------------------------------------------------------------------|
|----------6-5-6-5----8---6---5--6-5-6-5-----------------------------------------------|
|--5---7-----------7-------------------------------------------------------------------|
|--------------------------------------------------------------------------------------|
|--------------------------------------------------------------------------------------|
|--------------------------------------------------------------------------------------|

Solo
|~----------------------------------8-10-10-10-10-8-8-8------8-------------------------|
|-6-8-8-8-8-6--6/8-10-10-10-10-8--8h10(hold)------------8h10---10----------------

Et Acoustic Chords – Katy Perry

******************************************
Capo on 1st Fret. Chords relative to Capo.
******************************************

(NB. There is no intro to this song, but you can lead into this acoustic version 
with Em, Em, C, D)


 Em 
You're so hypnotising
 C 
could you be the devil, could you be an angel
 G 
Your touch magnetising
 D 
feels like I am floating, leaves my body glowing
 Em 
They say "be afraid"
 C 
you're not like the others, futuristic lovers
 G D 
Different DNA, they don't understand you


                   C D 
You're from a whole other world
   Em 
a different dimension
     C D 
You open my eyes
         Em D  (one strum/pick)
and I'm ready to go, lead me into the light


(Chorus)
 Em          
Kiss me, ki-ki-kiss me
 C                                       
infect me with your love and fill me with your poison
 G          
Take me, ta-ta-take me
 D                                 
wanna be your victim, ready for abduction
 C D Em C 
 (Boy), you're an alien, your touch so for-eign
      D Em 
it's supernatural, extraterrestrial


 Em 
You're so supersonic
 C 
want to feel your powers, stun me with your lasers
 G D 
Your kiss is cosmic, every move is magic


                   C D 
You're from a whole other world
   Em 
a different dimension
     C D 
You open my eyes
         Em D  (one strum/pick)
and I'm ready to go, lead me into the light


(Chorus)
 Em          
Kiss me, ki-ki-kiss me
 C                                       
infect me with your love and fill me with your poison
 G          
Take me, ta-ta-take me
 D                                 
want to be your victim, ready for abduction
 C D Em C 
 (Boy), you're an alien, your touch so for-eign
      D Em 
it's supernatural, extraterrestrial


 C         ( D )            C     ( D )                  
This is transcendental, on another level
 G D 
boy, you're my lucky star
 C         ( D )
I wanna walk on your wavelength
 C         ( D )
and be there when you vibrate
 Em D 
for you I'd risk it all......all


(Chorus)
 Em          
Kiss me, ki-ki-kiss me
 C                                       
infect me with your love and fill me with your poison
 G          
Take me, ta-ta-take me
 D                                 
want to be your victim, ready for abduction
 C D Em C 
 (Boy), you're an alien, your touch so for-eign
      D Em 
it's supernatural, extraterrestrial


 C D Em 
Extraterrestrial

 C D Em 
Extraterrestrial


 C D Em C</spa

Wild Eyes solo Tabs by Parkway Drive V2

Songs in drop B 

Interlude 

Rythm guitar 
|------------------------------------------------------|
|------------------------------------------------------|
|------------------------------------------------------|
|------------------------------------------------------|
|--5777735----5777753----5777735-----------------------|
|------------------------------------------------------|


Lead/Solo 

|----------------2h3p2-2h3p2-------------------------|
|--5-5-3--5-5-3-------3------------------------------|
|----------------------------------------------------|
|----------------------------------------------------|
|----------------------------------------------------|
|----------------------------------------------------|

|----------------------7-7-5-5------5b6r5------------|
|--355553----577b8r7-----------7--78-----------------|
|--------42---------7--------------------------------|
|----------------------------------------------------|
|----------------------------------------------------|
|----------------------------------------------------|

|----------------------------------------------------------------|
|--355553----577b8r7---8p5-58p5-58p5-58p5-510p7-710p7-710b12r10--|
|--------42---------7-----7----7----7----7-----9-----9-----------|
|----------------------------------------------------------------|
|----------------------------------------------------------------|
|----------------------------------------------------------------|

And thats it easy peasy! just join in with the other guitar and finish this epic song :)

rate! and all comments welcome :)

Cheers for checking it out

Our God Chords – Chris Tomlin

 Although the way to play this song is described here, use your discretion when playing it.

Capo 4
Lead:  B (7e);  E (12e);  C# (11e);  D# (9e)
Interlude:  Em7 ;  Cadd9 ;  G5 ;  Dsus4/F# 

Verse 1:
 Em7 Cadd9 G5 
Water You turned into wine
 Em7 Cadd9 G5 
Opened the eyes of the blind
                Am7 
There's no one like You
           Dsus4 D   
None like You

Verse 2:
 Em7 Cadd9 G5 
Into the darkness we shine
 Em7 Cadd9 G5 
Out of the ashes we rise
                Am7 
There's no one like You
           Dsus4 D 
None like You

Chorus:
 Em7 
Our God is greater
 Cadd9 
Our God is stronger
 G5 Dsus4/F# 
God You are higher than any other
 Em7 
Our God is healer
 Cadd9 
Awesome in power
 G5 D 
Our God our God

(Verse 2)
(Chorus)

Bridge:
 Em7 
And if our God is for us
 Cadd9 
Then what could ever stop us
 G5 
And if our God is with us
 Dsus4/F# 
Then what could stand against [us]
 Em7 
And if our God is for us
 Cadd9 
Then what could ever stop us
 G5 
And if our God is with us
 D 
Then what could stand against [us]

For the interlude after the bridge and other areas, you can play  G#m ,  E ,  B ,  F#  without the capo.

(Chord: Formation (Recommended fingering)) (5=thumb)
 Em7 : 022033 (021034)
 Cadd9 : X3X033 (122034)
 G5 : 3X0033 (220034)
 Dsus4/F# : 2X0233 (220134)
 Dsus4 :X00233 (500134)
 D :X00232 (500132)