Tag: let

Let It Be guitar chords by The Beatles

[Verse 1]
       C              G                 Am          Fmaj7    F6
When I find myself in times of trouble, Mother Mary comes to me
C                 G              F  C/E Dm C
Speaking words of wisdom, let it be
    C              G                 Am              Fmaj7    F6
And in my hour of darkness, She is standing right in front of me
C                 G              F  C/E Dm C
Speaking words of wisdom, Let it be

[Chorus]
        Am        C/G          F          C
Let it be, let it be,  let it be, let it be
C                G              F  C/E Dm C
 Whisper words of wisdom, let it be

[Verse 2]
       C              G              Am           Fmaj7    F6
And when the broken hearted people, Living in the world agree
C                 G              F  C/E Dm C
There will be an answer, let it be
       C                 G              Am                  Fmaj7    F6
For though they may be parted, There is still a chance that they may see
C                 G              F  C/E Dm C
There will be an answer, let it be

[Chorus]
        Am        C/G          F          C
Let it be, let it be, let it be, let it be
C                G              F  C/E Dm C           
There will be an answer, let it be
        Am        C/G          F          C       
Let it be, let it be, let it be, let it be
C                G              F  C/E Dm C          
Whisper words of wisdom, let it be
                       
[Instrumental]
F  C/E   Dm   C   Bb  F/A  G   F   C    (x2)

[Solo] x2
C  G  Am  F
C  G  F   C    
        
[Chorus]
        Am        C/G          F          C
Let it be, let it be,  let it be, let it be
C                G              F  C/E Dm C
 Whisper words of wisdom, let it be

[Verse 3]
      C                 G             
And when the night is cloudy, 
                 Am          Fmaj7    F6             
There is still a light that shines on me
   C             G              F  C/E Dm C  
Shine on till tomorrow, let it be
   C               G               Am        Fmaj7    F6   
I wake up to the sound of music, Mother Mary comes to me
   C                G            F  C/E Dm C  
Speaking words of wisdom, let it be

[Chorus]
        Am        C/G          F          C
Let it be, let it be,  let it be, let it be
C                G              F  C/E Dm C
 Whisper words of wisdom, let it be

[Outro]
F  C/E   Dm   C   Bb  F/A  G   F   C

Let Her Go guitar chords by Passenger

Capo 7th fret

[Intro]
    G                F        G               Am    G                  F           G    Am
e|-----0-------------------0-----0----------------0-------0-------------------3p0-------0---|
B|--3-----3--1-------1--------3-----3--1------1-----3--3----3--1-------1----1------1h3--1---|
G|--------------0h2--2--2----------------0h2----0-----------------0h2--2--2-----------------|
D|-------------------3-------------------------------------------------3--------------------|
A|--------------------------------------------0-----------------------------------------0---|
E|----------------------------3---------------------3--3---------------------------3--------|

    G                F        G               Am     G                  F           G    Am
e|-----0-------------------0-----0----------------0--------0-------------------3p0-------0--|
B|--3-----3--1-------1--------3-----3--1------1------3--3----3--1-------1----1------1h3--1--|
G|--------------0h2--2--2----------------0h2----0------------------0h2--2--2----------------|
D|-------------------3--------------------------------------------------3-------------------|
A|--------------------------------------------0------------------------------------------0--|
E|--3-------------------------3----------------------3--3---------------------------3-------|

[Chorus]
                       F                       C
Well you only need the light when it's burning low
              G                       Am
Only miss the sun when it starts to snow
               F                           C       G
Only know you love her when you let her go
                      F                        C
Only know you've been high when you're feeling low
              G                        Am
Only hate the road when you're missin  home
               F                         C
Only know you love her when you've let her go
G
  And you let her go

[Instrumental]
Am   F   G   Em
Am   F   G

[Verse 1]
Am                            F
Staring at the bottom of your glass
        G                            Em
Hoping one day you will make a dream last
               Am               F          G
The dreams come slow and they go so fast
    Am                          F
You see her when you close your eyes
      G                           Em
Maybe one day you will understand why
               Am           F         G
Everything you touch surely dies

[Chorus]
                      F                       C
But you only need the light when it's burning low
              G                       Am
Only miss the sun when it starts to snow
               F                           C       G
Only know you love her when you let her go
                      F                        C
Only know you've been high when you're feeling low
              G                        Am
Only hate the road when you're missin  home
               F                         C       G
Only know you love her when you've let her go

[Verse 2]
Am                            F
Staring at the ceiling in the dark
         G                     Em
Same old empty feeling in your heart
           Am                 F       G
Love comes slow and it goes so fast
         Am                      F
Well you see her when you fall asleep
                G                  Em
But to never to touch and never to keep
                          Am
Because you loved her too much
                  F          G
And you dived too deep

[Chorus]
                       F                       C
Well you only need the light when it's burning low
              G                       Am
Only miss the sun when it starts to snow
               F                           C       G
Only know you love her when you let her go
                      F                        C
Only know you've been high when you're feeling low
              G                         Am
Only hate the road when you're missin'  home
               F                         C         G
Only know you love her when you've let her go

[Bridge]
                Am
And you let her go
      F     G
Ooooo ooooo oooooo
                Am
And you let her go
        F     G
Ooooooo ooooo ooooo
                Am         F    G   Em
And you let her go

[Interlude]
Am    F    G

[Chorus]
                          F                       C
Because you only need the light when it's burning low
              G                       Am
Only miss the sun when it starts to snow
               F                           C       G
Only know you love her when you let her go
                      F                        C
Only know you've been high when you're feeling low
              G                         Am
Only hate the road when you're missin'  home
               F                         C
Only know you love her when you've let her go

[Chorus]
                          F                     C
Because you only need the light when it burning low
              G                       Am
Only miss the sun when it starts to snow
               F                           C       G
Only know you love her when you let her go
N.C.
Only know you've been high when you're feeling low

Only hate the road when you're missin  home

Only know you love her when you've let her go

And you let her go


***********************************

| h   Hammer-on
| p   Pull-off

***********************************

Say You Wont Let Go chords by James Arthur

[Intro]
G D Em C

[Verse 1]
G
I met you in the dark
D
You lit me up
Em
You made me feel as though
C
I was enough

G
We danced the night away
D
We drank too much
Em
I held your hair back when
C
You were throwing up

[Pre-Chorus]
G
Then you smiled over your shoulder
D
For a minute, I was stone cold sober
Em                        C
I pulled you closer to my chest

G
And you asked me to stay over
D
I said, I already told ya
Em                               C
I think that you should get some rest

[Chorus]
G
I knew I loved you then
D
But you'd never know
Em
Cause I played it cool when I was 
C
Scared of letting go

G
I know I needed you
D
But I never showed
Em
But I wanna stay with you
C
Until we're grey and old

G                       D
Just say you won't let go
Em                      C
Just say you won't let go

[Verse 2]
G
I wake you up with some
D
Breakfast in bed
Em
I'll bring you coffee with a
C
kiss on your head

G
And I'll take the kids to school
D
Wave them goodbye
Em
And I'll thank my lucky stars for 
C
That night

[Pre-Chorus]
G
When you looked over your shoulder
D
For a minute, I forget that I'm older
Em                           C
I wanna dance with you right now, oh

G
And you look as beautiful as ever
D
And I swear that everyday you'll get better
Em                          C
You make me feel this way somehow

[Chorus]
G
I'm so in love with you
D
And I hope you know
Em
Darling your love is more than worth its
C
Weight in gold

G
We've come so far my dear
D
Look how we've grown
Em
And I wanna stay with you
C
Until we're grey and old

G                      D
Just say you won't let go
Em                     C
Just say you won't let go

[Verse 3]
G
I wanna live with you
D
Even when we're ghosts
Em
Cause you were always there for me
C
When I needed you most

[Chorus]
G
I'm gonna love you till
D
My lungs give out
Em
I promise till death we part
C
Like in our vows

G
So I wrote this song for you
D
Now everybody knows
Em
That it's just you and me
C
Until we're grey and old

[Outro]
G                      D
Just say you won't let go
Em                     C
Just say you won't let go

G                      D
Just say you won't let go
Em                         C
Oh, just say you won't let go
G
(end on single strum)

Say You Wont Let Go chords by James Arthur

[Intro]

G D Em C

[Verse 1]

G

I met you in the dark

D

You lit me up

Em

You made me feel as though

C

I was enough

G

We danced the night away

D

We drank too much

Em

I held your hair back when

C

You were throwing up

[Pre-Chorus]

G

Then you smiled over your shoulder

D

For a minute, I was stone cold sober

Em                        C

I pulled you closer to my chest

G

And you asked me to stay over

D

I said, I already told ya

Em                               C

I think that you should get some rest

[Chorus]

G

I knew I loved you then

D

But you’d never know

Em

Cause I played it cool when I was

C

Scared of letting go

G

I know I needed you

D

But I never showed

Em

But I wanna stay with you

C

Until we’re grey and old

G                       D

Just say you won’t let go

Em                      C

Just say you won’t let go

[Verse 2]

G

I wake you up with some

D

Breakfast in bed

Em

I’ll bring you coffee

C

With a kiss on your head

G

And I’ll take the kids to school

D

Wave them goodbye

Em

And I’ll thank my lucky stars for

C

That night

[Pre-Chorus]

G

When you looked over your shoulder

D

For a minute, I forget that I’m older

Em                           C

I wanna dance with you right now, oh

G

And you look as beautiful as ever

D

And I swear that everyday you’ll get better

Em                          C

You make me feel this way somehow

[Chorus]

G

I’m so in love with you

D

And I hope you know

Em

Darling your love is more than worth its

C

Weight in gold

G

We’ve come so far my dear

D

Look how we’ve grown

Em

And I wanna stay with you

C

Until we’re grey and old

G                      D

Just say you won’t let go

Em                     C

Just say you won’t let go

[Verse 3]

G

I wanna live with you

D

Even when we’re ghosts

Em

Cause you were always there for me

C

When I needed you most

[Chorus]

G

I’m gonna love you till

D

My lungs give out

Em

I promise till death we part

C

Like in our vows

G

So I wrote this song for you

D

Now everybody knows

Em

Cause it’s just you and me

C

Until we’re grey and old

[Outro]

G                      D

Just say you won’t let go

Em                     C

Just say you won’t let go

G                      D

Just say you won’t let go

Em                         C

Oh, just say you won’t let go

Let The Love Back In chords – The Orange Lights

 Gm Dm 
Sometimes, it just don't make no sense at all
 F C       
I'm still trying to find a reason for it all
   Gm Dm 
My life I thought it would be something beautiful
      F C Dm 
But now it feels like there's nothing there at all anymore
             C A# 
Give me the sunshine instead of the rain
          C 
All that I want is to be happy again
 Dm C A# 
Give me the sunshine instead of the rain
              C 
Give me the sunshine instead of the rain
            Gm Dm 
We got to let the love back in again
 F C 
Let the love back in again
    Gm Dm 
Oh why does it have to be so hard
 F C 
How did you and me get where we are
 Gm Dm 
How did you become invisible
 F C Dm 
Your mind is now just nothing there at all anymore
 Dm C A# 
Give us the sunshine instead of the rain
          C 
All that we want is to be happy again
 Dm C A# 
Give us the sunshine instead of the rain
            Gm Dm 
We got to let the love back in again

Dont Let Go The Coat chords – The Who

 Don't Let Go The Coat
by The Who
 Duke

Chords:
 G D C Em Bm 

Intro:

 G D C D  (x4)

 G D C D G 
 I can't be held responsible for blown behaviour
   D C D G 
I lost all contact with my only saviour
        D C D G 
No-one locked me out because I failed to phone up
   D C D G D 
I can't bear to live forever like a loner

 C D G D 
Don't let go the coat
 C D G D 
Don't let go the coat 
 C D G D 
Don't let go the coat
 C D G D 
Don't let go the coat

 G D C D G 
 It's easy to be sad when you lack a partner
     D C D G 
But how would I react to a broken heart now
          D C D G 
It ain't really true rock and roll unless I'm
         D C D G D 
Hanging onto you and when I hold it next time

   C D G D 
I won't let go the coat
 C D G D 
Don't let go the coat 
         C D G D 
(spoken)Don't let go the coat 
 C D G D 
Don't let go the coat

Interlude:
 C D G D C D G D C D G D C D G D Em D C 
  I try to explain but you never understand it
 Em D C 
  I need your body but I can't just demand it
 Bm D G 
  I won't let go like a stray at heel
                           D 
(Never let it out of your sight)
 Bm G C D   
  Every lonely wife knows the way I feel
 C D 
(Don't let go tonight)
                  G 
Don't let go the coat
 D C D 
Never let go the coat

 G D C D G 
 Your friends all pass for life is just a market
 D C D G  
But you have to finish everything you started
      D C D G  
So I live my life tearing down the runway
 D C D G D 
Sure to get the hang of hanging in there someday

 C D G D 
Don't let go the coat
 C D G D 
Don't let go the coat 
 C D G D 
Don't let go the coat
 C D G D 
Don't let go the coat
 
 C D G D 
Don't let go (won't get no more chances)
 C D G D 
Don't let go (forget the war dances)
 C D G D 
Don't let go (go blind and hang on)
 C D G D 
Don't let go (don't try the slang son)

 C D

Less Of Me Let Me Be A Little Kinder chords – Glen Campbell

 Less Of Me (Let Me Be A Little Kinder)
Glen Campbell
Glen Campbell Goodtime Hour 


Intro:  G C G C G D C D G  

Verse 1 

        G C G D 
Let me be a little kinder let me be a little blinder
        C D 
To the faults of those around me let me praise a little more
        G C G D 
Let me be when I am weary just a little bit more cheery
         C D G C G 
Think a little more of others and a little less of me

  G C G D C D G   

Verse 2 
   
        G C G D 
Let me be a little braver when temptation bids me waver
        C D 
Let me strive a little harder to be all that I should be
            G C G D 
And let me be a little meeker with a brother that is weaker
        C D G C G 
Let me think more of my neighbor and a little less of me

  G C G D C D G E 

Verse 3

        A D A E 
Let me be when I am weary just a little bit more cheery
        D E 
Let me serve a little better those that I am striving for
            A D A E 
And let me be a little meeker with a brother that is weaker
         D E A 
Think a little more of others and a little less of me

  A D A E 

Outro

         D E A 
Think a little more of others and a little less of me

flyinglibra51
God Bless Glen Travis Campbell

Dont Let Me Go chords – Bernhoft Vsion 2

 The Moving Bass is towards the end of each phrase
Ex: The D, E, F# is the bass line
 Bm D E F# 
I feel like a worker bee

Verse:

 Bm D E F# 
I feel like a worker bee

 F#m/C# C# D E 
Sittin' all alone in here

 Em/B B F# B E 
In this long deserted hive

(bass lick):   E F# A B Bm D E F#  
All relations gone to pieces
 F#m/C# C# D E 
I drove the people close to me
 Em/B B F# B E  
Miles away outta my sight
  E F# A B Bm D E F#  
And now I'm like a naked man
 F#m/C# C# D E  
Standing in the desert tryin'
 Em/B B F# B A/E 
Tryin' to sell a messiah for silver

Chorus:
                D7 
Please hold me back
                 G 
And don't let me go
           D7 
When I go crazy
               G7 
Don't let me go
  F# E D Em/B F#m/C# G/D A G F# 
All of my bridges are crumbling to dust
                      Em/B F#m/C# G/D 
And you might be the only one that I can trust
    A/C# Bm 
So please hold on

 Bm D E F# F#m/C# C# D E Em/B B F# B E E F# A B Bm D E F#  
You were not the first I've seen
 F#m/C# C# D E  
Gettin' eaten from within
 Em/B B F# B E  
Being what you do

 Bm D E F#  
It's easy enough to lose a step or two
 F#m/C# C# D E  
Dodging bullets while building a truce
 Em/B B F# B E  
Don't beat yourself up about it
  E F# A B Bm D E F#  
What you lost you can't get back
 F#m/C# C# D E  
A little perspective right here in this track
 Em/B B F# B A/E 
I've seen children get sold for silver

Chorus:               
 A D7 
I could hold you back
                       G 
But I won't treat you so
                        D7 
I don't think you're crazy
                    G7 
And I won't let you go

  F# E D Em/B F#m/C# G/D A G F#  
I'll be that someone you can hold onto
                  Em/B F#m/C# G/D 
But I won't be somebody holding onto you

    A Bm 
Weighing you down

 Bm F#m/C# Em/B 
(No, no, no, no, no)

(Switch to Tremolo style)

 Bm D E F#                  
Don't have the courage to
 F#m/C# C# D <spa

You Let A Good Man Go Tabs – Peer Günt

 Main Riff:
e:---------------------------------------------------------------------------|
B:-----8--7----5~------------------------------------------------------------|
G:-----7--7----5~------------------------------------------------------------|
D:------------------7--5-----------------------------------------------------|
A:--0----------------------7--5----------------------------------------------|
E:-------------------------------8--5----------------------------------------|


Bridge1:
e:---------------------------------------------------------------------------|
B:---------------------------------------------------------------------------|
G:-5--5--5--5--5----5--5--5--5-----------------------------------------------|
D:-4--4--4--4--4----4--4--4--4-----------------------------------------------|
A:-5--5--5--5--5----5--5--5--5-----------------------------------------------|
E:---------------------------------------------------------------------------|

                                                                
Bridge2:
e:--------------------------------------------------------------|
B:--------------------------------------------------------------|
G:--7--7--7--7--7----7--7--7--7------5--5--5--5--5----5--5--5--5|
D:--6--6--6--6--6----6--6--6--6------4--4--4--4--4----4--4--4--4|
A:--7--7--7--7--7----7--7--7--7------5--5--5--5--5----5--5--5--5|
E:--------------------------------------------------------------|


Alternate version:


Main Riff:
e:---------------------------------------------------------------------------|
B:-----8--7----5~------------------------------------------------------------|
G:-----9--7----5~------------------------------------------------------------|
D:------------------7--5-----------------------------------------------------|
A:--0----------------------7--6--5-------------------------------------------|
E:----------------------------------5----------------------------------------|

Let Her In Tabs – Peer Günt

 Intro:
e:---------------------------------------------------------------------------|
B:---------------------------------------------------------------------------|
G:--2-----------------------------2--2--2-----------------------------2--2---|
D:--2--------4p-2-----------------2--2--2--------4p-0-----------------2--2---|
A:--0--3p-0--------3p-0--3p-0-----0--0--0--3p-0--------3p-0--3p-0-----0--0---|
E:-----------------------------3-----------------------------------3---------|


       
e:---------------------------------------------------------------------------|
B:---------------------------------------------------------------------------|
G:---------------------------------------------------------------------------|
D:--2------------------------------------------------------------------------|
A:--2------------------------------------------------------------------------|
E:--0------------------------------------------------------------------------|


Verse1(With partial drums):                           
e:---------------------------------------------------------------------------|
B:---------------------------------------------------------------------------|
G:--2-----------------------------2--2---------------------------------------|
D:--2--------4p-2-----------------2--2---------------------------------------|
A:--0--3p-0--------3p-0--3p-0-----0--0---------------------------------------|
E:-----------------------------3---------------------------------------------|


Bridge:
e:---------------------------------------------------------------------------|
B:---------------------------------------------------------------------------|
G:---------------------------------------------------------5-----------------|
D:---------2------------2------------2-------------2-------5--5--7-----------|
A:---------2------------2------------2-------------2-------3--5--7-----------|
E:---3--3~-0------3--3~-0------3--3~-0-------3--3~-0----------3--5-----------|



Verse2(With full drums):
e:---------------------------------------------------------------------------|
B:---------------------------------------------------------------------------|
G:----2-----------------------------2--2-------------------------------------|
D:----2--------4p-2-----------------2--2-------------------------------------|
A:----0--3p-0--------3p-0--3p-0-----0--0-------------------------------------|
E:-------------------------------3-------------------------------------------|


Bridge:
e:---------------------------------------------------------------------------|
B:---------------------------------------------------------------------------|
G:---------------------------------------------------------5-----------------|
D:---------2------------2------------2-------------2-------5--5--7-----------|
A:---------2------------2------------2-------------2-------3--5--7-----------|
E:---3--3~-0------3--3~-0------3--3~-0-------3--3~-0----------3--5-----------|


Chorus:
e:---------------------------------------------------------------------------|
B:---------------------------------------------------------------------------|
G:-----2--5--7--------5--5----7--7------2-----------------------------2--2--2|
D:-----2--5--7--------5--5----7--7------2--------4p-2-----------------2--2--2|
A:-----0--3--5--------5--5----5--5------0--3p-0--------3p-0--3p-0-----0--0--0|
E:-----------------------------------------------------------------3---------|



e:---------------------------------------------------------------------------|
B:---------------------------------------------------------------------------|
G:-----------------------------2--5--7-------5--5-----7--7-----9--9----------|
D:--------4p-2-----------------2--5--7-------5--5-----7--7-----9--9----9--10-|
A:--3p-0--------3p-0--3p-0-----0--3--5-------5--5-----5--5-----7--7----7--8--|
E:--------------------------3------------------------------------------------|



e:------------------------------------------------------------

Let It All Go chords – Rhodes

 RHODES + BIRDY Let It All Go //
CAPO 3

 E XTRA
INTRO
*************************************************************************************
(you can hear the piano bit that plays. Just use where appropriate where you like :) )

e|-x--0--0--0--0--0--0--0--0--0--0--0--0--0--0--0--2--x--0--0--0--0--0--0-----------|
B|-0--1--3--3--3--3--3--3--1--1--3--3--3--3--3--0--3--0--1--3--3--3--3--3-----------|
G|-0--0--------------------2--0-----------------0--2--0--0--------------------------|
D|-0--2--------------------2--2-----------------2--0--0--2--------------------------|
A|-2--3--------------------0--3-----------------2--0--2--3--------------------------|
E|-3--x--------------------0--x-----------------0--x--3--x--------------------------|

*************************************************************************************
CHORDS

(intro)
 G C Am C Em D G C 

(verse 1)

              G C              
I've been sleepless at night
                 Am C 
'Cause I don't know how I feel
            G C 
I've been waiting on you
          Am C 
Just to say something real

           Em D 
There's a light on the road
       G C 
And I think you know
 Em D 
Morning has come
       G C 
And I have to go

(bridge)

 Am Em D 
     I don't know why, I don't know why
    D 
We need to break so hard
 Am Em D 
     I don't know why we break so hard

(chorus)

 C 
     But if we're strong enough
 G D 
    To let it in
 C 
    We're strong enough
 G D 
    To let it go

(verse 2)

           G C 
If I look back to the start now I know, 
       Am C 
I see everything true
                 G C 
There's still a fire in me heart, my darling
                Am C 
But I'm not burning for you

    Em D 
We started it wrong
       G C 
And I think you know
    Em D 
We waited to long
       G C 
Now I have to go

(bridge)

 Am Em D 
     I don't know why, I don't know why
    D 
We need to break so hard
 Am Em D 
     I don't know why we break so hard

(chorus)

 C 
     But if we're strong enough
 G D 
    To let it in
 C 
    We're strong enough
 G D 
    To let it go

(coda )*** X2

 C G 
Let it all go, let it all go
            D 
Let it all out now


(coda 2)
 C Em G D 
     Who says, who says?
 C Em G D 
     Who says, who says?

 G C D 
Who says truth is 
              C 
beauty after all?
     G C D 
And who says love should 
                   C 
break us when we      fall?

(interlude)
 D   ,   Dsus   ,  D 


(chorus)

 C 
     But if we're strong enough
 G D 
    To let it in
 C 
    We're strong enough
 G D 
    To let it go

(coda )*** X2

 C G 
Let it all go, let it all go
            D 
Let it all out now

 C 
     We're strong enough
 G D 
   

Let It Go Tabs – James Bay V4

 -------------------------------------------------------------------------------
                             Let It go - James Bay
-------------------------------------------------------------------------------
: Trond Marius Sørensen
 Trond_Marius_96@hotmail.com

Tuning: It's tuned a half-step down, but the F# string should be tuned a whole step down to F.

D#
A#
F
C#
G#
D#



Intro
                        
|------------------------------------------------------------|
|-----7-----7-----7----/12------12-----12-----12-----12------|
|--------0-----0-----0-------0------0------0------0------0---|
|------------------------------------------------------------|
|-----5----------------/10-----------------------------------|
|------------------------------------------------------------|
      
|------------------------5------5------5---------------------|
|-----7-----7-----7---------------------------8-------7------|
|--------0-----0-----0-------0------0------0------0------0---|
|------------------------------------------------------------|
|------------------------------------------------------------|
|-----7------------------5-----------------------------------|

|------------------------------------------------------------|
|-----7-----7-----7----/12------12-----12-----12-----12------|
|--------0-----0-----0-------0------0------0------0------0---|
|------------------------------------------------------------|
|-----5----------------/10-----------------------------------|
|------------------------------------------------------------|


|------------------------0------0-------0-----0-------0------|
|-----7-----7-----7------------------------------------------|
|--------0-----0-----0-------0------0------0------0------0---|
|------------------------------------------------------------|
|------------------------------------------------------------|
|-----7------------------5-----------------------------------|

Verse

|------------------------------------------------------------|
|-----7-----7-----7----/12------12-----12-----12-----12------|
|--------0-----0-----0-------0------0------0------0------0---|
|------------------------------------------------------------|
|-----5----------------/10-----------------------------------|
|------------------------------------------------------------|
      
|------------------------5------5------5---------------------|
|-----7-----7-----7---------------------------8-------7------|
|--------0-----0-----0-------0------0------0------0------0---|
|------------------------------------------------------------|
|------------------------------------------------------------|
|-----7------------------5-----------------------------------|

|------------------------------------------------------------|
|-----7-----7-----7----/12------12-----12-----12-----12------|
|--------0-----0-----0-------0------0------0------0------0---|
|------------------------------------------------------------|
|-----5----------------/10-----------------------------------|
|------------------------------------------------------------|


|------------------------5------5------5---------------------|
|-----7-----7-----7---------------------------8-------7------|
|--------0-----0-----0-------0------0------0------0------0---|
|------------------------------------------------------------|
|------------------------------------------------------------|
|-----7------------------5-----------------------------------|

|------------------------------------------------------------|
|-----7-----7-----7----/12------12-----12-----12-----12------|
|--------0-----0-----0-------0------0------0------0------0---|
|------------------------------------------------------------|
|-----5----------------/10-----------------------------------|
|------------------------------------------------------------|

|------------------------5------5------5---------------------|
|-----7-----7-----7---------------------------8-------7------|
|----

Let The Sound Of Heaven chords – Bryan And Katie Torwalt

 Verse 1:
 Em G Am7 C/G 
Let the sound of heaven ring out
 Em G Am7 C/G 
Join the songs of angels sung loud
 Em G Am7 C/G  
Let all heaven and earth praise 
      Em G Am7 C/G 
Your name Lord Jesus

Verse 2:
 Em G Am7 C/G 
Let the signs and wonders break out,
 Em G Am7 C/G 
Let revival fire burn bright
 Em G Am7 C/G  
Let all heaven and earth praise
      Em G Am7 C/G 
Your name Lord Jesus

Chorus:
             G Am7 
        Let praise come from my lips all my days
              G/B C 
        Your love overtake me and flow through my veins
             G Am7 
        Let Heaven on earth be reality here
             G/B C 
        Let Your Kingdom come and Your glory dwell here

Bridge:
 D C G/B Am7 
All my love and affection belongs to You (3x)

Dont Let The Sun Steal You Away chords – Bears Den V2

 Don't Let the Sun Steal You Away
By Bear's Den
Capo 6 standard tuning

Intro
 Am C G Am F Am G 


Verse
 Am C 
The bird's start their screaming
    G Am 
As you let go of my hand
 F Am 
Old words lose all meaning
    G F G 
As morning descends

 Am C 
Fickle night you are a liar
      G Am 
And you made a fool out of me
 F Am 
You mistook my love for desire
     G F G 
And you set my demons free


Chorus
 Am C G Am 
Don't let the sun steal you away
                F Am G 
Don't let your mind speak louder than your heart
 Am C G Am 
Don't let the sun steal you away
                F Am G 
Don't let your mind speak louder than your heart

 Am C G Am F Am G 


Verse
 Am C 
Yeah I know that you're scared 
    G Am 
I know cause I am too
 F Am 
I'm scared of hurting someone
      G F G 
The way I've been hurt by you

 Am C 
I don't want to touch you in the night
    G Am 
If I cannot hold you in the day
 F Am 
As the sun slowly rises
      G F G 
You're love for me decays


Chorus

 Am C G Am F Am G        x2

Chorus

Let The Magic Fill Your Soul chords by Woodlore

 F#m A F#m A F#m A 
I know you're busy here
 A F#m A 
But would it hurt to take a break, my dear?
       F#m A 
You're working yourself mindless
       D E 
You'll drive yourself insane

       F#m A 
You're pent up all alone
       F#m A     
You're going down a lonely road
 F#m A 
There's no shame in leaning
    D E 
On somepony else

    A D A 
So follow your story, follow your song
     F#m E               
But follow your friends when the days get long
 A D A  
Lay down your soul at the fireside
 F#m A E F#m  
Lay down your burden and sing away your strife
          A E F#m 
All this time you've been alone
           A E F#m 
You don't have to be alone 
          D A E F#m       
Just let go your inhibitions now, enjoy yourself
         A E F#m 
Let the magic fill your soul

 F#m A F#m A F#m A 
I don't want you change
     F#m A 
But maybe you could rearrange
        F#m A 
'Cause what fun's living life if you don't
 D E 
live it with some friends?

    F#m A 
So you go your own way
     F#m A 
But you'll look back on life one day
     F#m A 
And you'll see the wonders of being with others
     D E 
And wish you went out to play 

 A D A 
Follow your story, follow your song
     F#m E 
But follow your friends when the days get long
 F#m D A 
Lay down your soul at the fireside
 F#m A E F#m 
Lay down your burden and sing away your strife
          A E F#m 
All this time you've been alone
           A E F#m 
You don't have to be alone, no
          D A E F#m 
Just let go your inhibitions now, enjoy yourself
         A E F#m 
Let the magic fill your soul

 A D A 
Follow your story, follow your song
 F#m E 
Follow your friends when your days get long
 F#m D A 
Lay down your soul at the fireside
 F#m A E F#m 
Lay down your burden and sing away your strife
          A E F#m 
All this time you've been alone
           A E F#m 
You don't have to be alone 
          D A E F#m 
Just let go your inhibitions now, enjoy yourself
         A E F#m 
Let the magic fill your soul

 A D A 
Follow your story, follow your song
 F#m E 
Follow your friends when your days get long
 F#m D A 
Lay down your soul at the fireside
 F#m A E F#m 
Lay down your burden and sing away your strife
          A E F#m 
All this time you've been alone
           A E</

Let Your Hair Down solo Tabs – Magic

 -------------------------------------------------------------------------------
                             Let Your Hair Down - Magic
-------------------------------------------------------------------------------
: Eric Fung
 Ericfung1998@hotmail.com
 
Tuning: Standard

e|-------10--------11-------13--------15---17-------18v|
B|-13b15-----14b16-----16b18----18b20----------15------|
G|-----------------------------------------------------|
D|-----------------------------------------------------|
A|-----------------------------------------------------|
E|-----------------------------------------------------|

e|---------10-------------10---------------------------|
B|-13/15--------13-11-13-------------------------------|
G|------------------------------10v\-------------------|
D|-----------------------------------------------------|
A|-----------------------------------------------------|
E|-----------------------------------------------------|

e|-----------------------------------------------------|
B|-----------------------------------------------------|
G|----------12-----------14\12-------------------------|
D|----13-15-------13-15--------15----------------------|
A|-15----------15-----------------15\13--15/17--15v----|
E|-----------------------------------------------------|

e|-----------------------------------------------------|
B|-----------------------------------------------------|
G|-----------------------------------------------------|
D|--------------------15\------------------------------|
A|--15-------------------------------------------------|
E|-----15/17-15-13-------------------------------------|

e|---------------------------------------------18/20-18|
B|-----------------------------18b20-18-15-18----------|
G|--------------17b19-17-15-17-------------------------|
D|-----15---17-----------------------------------------|
A|-17--------------------------------------------------|
E|-----------------------------------------------------|

e|------------------------------18b20------------------|
B|-18-15----------------15v\----------18-15------------|
G|-------17-15----15h17---------------------15h17-15---|
D|-------------17--------------------------------------|
A|-----------------------------------------------------|
E|-----------------------------------------------------|

e|--------------------------15-------------15----------|
B|-16r15----------------15-----------18b20-------------|
G|-------15------17b19---------------------------------|
D|----------17-----------------------------------------|
A|-----------------------------------------------------|
E|-----------------------------------------------------|

e|-----------------------------------------------------|
B|--18--15---------------------------------------------|
G|---------17-15------15h17--17b19--17v\---------------|
D|----------------17-----------------------------------|
A|-----------------------------------------------------|
E|-----------------------------------------------------|

e|------15--------13--------10-------------------------|
B|-18---18---15---15---13---13---13---11--8-------8--11|
G|-17--------14--------12--------12---10--10--10--10---|
D|-----------------------------------------------------|
A|-----------------------------------------------------|
E|-----------------------------------------------------|

e|-----------------------------------------------------|
B|-11v\------------------------------------------------|
G|-----------------------------------------------------|
D|-----------------------------------------------------|
A|-----------------------------------------------------|
E|-----------------------------------------------------|
************************************

| /   slide up
| \   slide down
| h   hammer-on
| p   pull-off
| v   vibrato
| b   Bend

Hey guys, this is my first tab, sorry for any mistakes, tell me what you think. :D
************************************

Let Go Of You Girl chords – Left Banke

 The Left Banke - Let Go Of You Girl
song: https://www.youtube.com/watch?v=POdiO1xOg-E

INTRO
G    \ 2x
 F#m   /

VERSE 1
             G 
I've got to make you see
                F#m 
You're not the girl for me
            G 
And I will prove it to you
             F#m 
So that you will see
 Bm F#m 
I will let go of you girl

VERSE 2
            G 
You girl I have to show
                 F#m 
That things are really bad
                 G 
The things that you have said
                F#m 
The words that make me mad
 Bm F#m 
I will let go of you girl

CHORUS
 A G 
 You're gonna cry
 A B 
 You're gonna cry
 F#m Em 
 You're gonna cry
 Bm D 
 You're gonna cry
 G F#m 
 You're gonna cry
 G F#m 
 Yes, you will cry

VERSE 3 (same as verse 1)
             G 
I've got to make you see
                F#m 
You're not the girl for me
            G 
And I will prove it to you
             F#m 
So that you will see
 Bm F#m 
I will let go of you girl

VERSE 4 (same as verse 2)
            G 
You girl I have to show
                 F#m 
That things are really bad
                 G 
The things that you have said
                F#m 
The words that make me mad
 Bm F#m 
I will let go of you girl

CHORUS
 A G 
 You're gonna cry
 A B 
 You're gonna cry
 F#m Em 
 You're gonna cry
 Bm D 
 You're gonna cry
 F#m 

BRIDGE
 Gm 
 Make haste, it's late
 Em 
 Go pack your things away, they changed that cold view
 Em 
 The sky that would not
            C Am Bm 
Leave your life, it's blue

INTERLUDE
G   \ 2x
 F#m  /

VERSE 5 (same as verse 1)
             G 
I've got to make you see
                F#m 
You're not the girl for me
            G 
And I will prove it to you
             F#m 
So that you will see
 Bm F#m 
I can let go of you girl

VERSE 6 (same as verse 2)
            G 
You girl I have to show
                 F#m 
That things are really bad
                 G 
The things that you have said
                F#m 
The words that make me mad
 Bm F#m 
I will let go of you girl

CHORUS
 A G 
 You're gonna cry
 A B 
 You're gonna cry
 F#m Em 
 You're gonna cry
 Bm D 
 You're gonna cry

OUTRO
 G F#m 
 You're gonna cry (yes you will cry)
 G F#m 
 Yes, you will cry (yes you will cry)

End on G

Let Me Finish chords – Drowners V2

 Intro:
Play a G on the E string then
E|-3-3-3-3-3-3-5-5-5-5-5-5-5-0-0-0-0-0-0-0-0-0-0

 G Am Em G Am Em 
I’d cough along the avenue
             G Am 
Retracing steps that we once took
     Em G Am 
And here I am hooking arms with someone else
     Em G Am 
Who must remind me of you to some extent
 Em C 
Well I know it’s bad to see you but I let it slip
               Cadd9 
I let it slip

                  G Am Em 
When I feel the sweet caress of a familiar lower lip
        G Am 
That's dancing on my neck.
        Em 
And oh god I cannot control myself
     G Am Em 
The sweet caress of a familiar lower lip
        G Am 
That's dancing on my neck.
        Em C 
And oh god I cannot control myself

Interlude:
 G Am Em C   x2

  G Am Em G 
Well I know it’s bad to picture shadows watching you undress
              Am 
it’s nice to see you happy
         Em 
But nice you've got regrets
     G Am Em 
And ordinarily I want to make you jealous
                    C  
but I let it slip
               Cadd9 
I let it slip

                 G Am Em 
I feel the sweet caress of a familiar lower lip
        G Am 
That's dancing on my neck.
        Em 
And oh god I cannot control myself
     G Am Em 
The sweet caress of a familiar lower lip
        G Am 
That's dancing on my neck.
        Em C 
And oh god I cannot control myself

Interlude:
 G Am Em C   x2


                 G Am Em 
I feel the sweet caress of a familiar lower lip
        G Am 
That's dancing on my neck.
        Em 
And oh god I cannot control myself
     G Am Em 
The sweet caress of a familiar lower lip
        G Am 
That's dancing on my neck. 
        Em C G 
And oh god, oh god, oh god

I Will Never Let You Down chords – Rita Ora V7

 Standard Tuning
Capo on 2nd Fret


[Intro]
 D A Bm Bm F#m G  x2

[Verse 1]
 D A Bm 
Tell me baby what we gonna do
 Bm F#m G 
I'll make it easy, got a lot to lose
 D A Bm 
Watch the sunlight coming through
 Bm F#m G 
Open the window, let it shine on you

[Pre-Chorus]
    D 
Cos I've been sick and working all week
        A Bm 
And I've been doing just fine
 Bm 
You've been tired of watching me
     F#m G 
Forgot to have a good time boy

 D 
You can't take it, all these faces
 A Bm  
Never keeping it real
 Bm F#m G 
I know exactly how you feel

[Chorus]
 G 
When you say you've had enough
 D 
and you might just give it up
     Bm A 
    Oh    Ooh, 
 F#m G 
I Will Never Let You Down

 G 
When you're feeling low on love
 D 
I'll be what you're dreaming of
     Bm A 
    Oh    Ooh, 
 F#m G 
I Will Never Let You Down

 G D Bm A 
        Oh    Ooh, 
 F#m G 
I Will Never Let You Down

 G D Bm A 
        Oh    Ooh, 
 F#m G 
I Will Never Let You Down

 D A Bm Bm F#m G 

[Verse 2]
 D A Bm 
There's a million ways to go
 Bm F#m G 
Don't be embarrassed if you lose control
 D A Bm 
On the rooftop, now they know
 Bm F#m G 
Your body's frozen and you've lost your soul

[Pre-Chorus]
    D 
Cos I've been sick and working all week
        A Bm 
And I've been doing just fine
 Bm 
You've been tired of watching me
     F#m G 
Forgot to have a good time boy

 D 
You can't take it, all these faces
 A Bm  
Never keeping it real
 Bm F#m G 
I know exactly how you feel

[Chorus]
 G 
When you say you've had enough
 D 
and you might just give it up
     Bm A 
    Oh    Ooh, 
 F#m G 
I Will Never Let You Down

 G 
When you're feeling low on love
 D 
I'll be what you're dreaming of
     Bm A 
    Oh    Ooh, 
 F#m G 
I Will Never Let You Down

 G D Bm A 
        Oh    Ooh, 
 F#m G 
I Will Never Let You Down

 G D Bm A 
        Oh    Ooh, 
 F#m G 
I Will Never Let You Down

[Bridge]
 G D 
Let me take you where you never go
 Bm A F#m G 
Have a little fun, it's the only way we know
 G D 
Let me show you what you never see
 Bm A F#m G 
You know how to love, only when you're holding me oh!

[Chorus]
 G 
When you say you've had enough
 D 
and you might just give it up
     Bm A 
    Oh    Ooh, 
 F#m G 
I Will Never Let You Down

 G 
When you're feeling low on love
 D 
I'll be what you're dreaming of
     Bm A

Time Wont Let Me Go chords – Bravery V3

 The Bravery - Time Wont Let Me Go


                         (band in)
Intro    F C   | G Am  ||x2     F C               | G Am    |
                            --------------------------|-----------------|
                            --------------------------|-----------------|
                            -----12/14\12-------------|-----------------|
                            --------------10-12p10/14-|12~--------------|
                            --------------------------|-----------------|
                            --------------------------|-----------------|


 F C               | G Am  | F C               | G Am ||  
--------------------------|-------------|------------------------|------|
--------------------------|-------------|------------------------|------|
-----12/14\12-------------|-------------|---12/14\12-------------|------|
--------------10-12p10/14-|12~----------|------------10-12p10/14-|12~---|
--------------------------|----14\12p10-|------------------------|------|
--------------------------|-------------|------------------------|------|


Verse 1
 F C G Am 
 Whenever I look back on the best days of my life
 F C G Am    
 I think I saw them all on T.V.
 F C G Am   
 I am so homesick now for someone that I never knew
 F C G Am  
 I am so homesick for someplace I will never be


Chorus
 F C G Am 
 Time won't let me go
 F C G Am 
 Time won't let me go
 F C G Am 
 If I could do it all again I'd go back and change everything but
 F C G Am 
 Time won't let me go


Interlude   F C     | G Am     ||x2      


Verse 2
 F C G Am 
 I never had a 'Summer of 69'
 F C G Am 
 Never had a Cherry Valance of my own
 F C G Am 
 All these precious moments you promised me would come in time
 F C G Am     
 So where was I when I missed mine?


Chorus
 F C G Am 
 Time won't let me go
 F C G Am 
 Time won't let me go
 F C G Am 
 If you gave me back those years I'd do it all better I swear
 F C G Am 
 Time won't let me go


Interlude    
  F C G Am  
Bah ba ba ba bah ba ba ba bah ba ba bah ba bahh
  F C G Am  
Bah ba ba ba bah ba ba ba bah ba ba bah ba bahh
  F C G Am  
Bah ba ba ba bah ba ba ba bah ba ba bah ba bahh
  F C G Am  
Bah ba ba ba bah ba ba ba bah ba ba bah ba bahh


Bridge
 Dm C G 
 If I could go back once again I would change everything, yeah
 Dm C G 
 If I could go back once again I'd do it all so much better


Chorus
 F C G Am 
 Time won't let me go
 F C G Am 
 Time won't let me go
 F C G Am 
 If