Tag: line

Hold The Line chords – Rod Stewart

 Hold The Line – Rod Stewart
“Another Country”
 Roj Vincent

Intro:   C Em Am F C Em 
Hold on we just have to hold on
                  Am F 
We don't have to cry, no not tonight
         C Em 
I know lately everything seems crazy
                Am F 
People walking by just getting by
     C G 
And I just wanna rest my head
      C Am 
And lay down with roses on our bed
      Dm C G 
They say heaven can wait
         F G 
You and I, we'll survive
                  C 
Sometimes we're lost and astray
          Em Am 
And the hope far away, hold the line
           F 
We'll survive
                C 
So let's just smile through the rain
               Am 
Through the heartache and pain
           Am F 
Hold the line we'll survive
           C 
We'll Survive
 Em Am 
Hold the line (Hold the line)
           F 
We'll survive (Hold the line)

 C Em 
Slow down we just have to slow down
                 Am F 
Now’s becoming fast, way too fast
          C Em 
Another grey day, technicolour save me
                 Am F 
Paint it in the sky, we're alive
     Dm C G 
And I just wanna rest my head
      C G Am 
And lay down with roses in our bed
      Dm C G 
They say heaven can wait
         F G 
You and I, we'll survive
                  C 
Sometimes we're lost and astray
          Em 
And the hope far away
           Am F 
Hold the line we'll survive
                 C 
So let's just smile through the rain
               Em         
Through the heartache and pain
           Am F 
Hold the line we'll survive
           C 
We'll survive
                Em 
La   la   la   la   la   la
           Am 
Hold the line
           F 
We'll survive
                C 
La   la   la   la   la   la  
                Em 
La   la   la   la   la   la
           Am 
Hold the line
           F 
We'll survive

Break:   G Am F G Am F G Am C Dm Em F C C Em 
Hold on we just have to hold on
                   C 
We don't have to cry
             F 
No, not tonight
         C Em 
I know lately everything seems crazy
                Am F 
People walking by getting by
                  C 
Sometimes we're lost and astray
          Em 
And the hope far away
           Am F 
Hold the line we'll survive
                C 
So let's just smile through the rain
               Em 
Through the heartache and pain
           Am F 
Hold the line, we'll survive
           C Em 
We'll survive, oh yeah
           Am 
Hold the line
           F 
We'll survive
                C 
La   la   la   la   la   la
                Em 
La   la   la   la   la   la
           Am 
Hold the line
           F 
We'll survive
 

Behind The Line Tabs – Peer Günt

 notation legend:      

/   - slide up
\   - slide down
~   - vibrato
b   - bend 1/4      
ho  - hammer on
po  - pull off        

Intro:

play 4x
E ||----------------------------------------|-----------------------------------||
B ||------------12------------------5-------|----------7------------------------||
G#||.-------/12----12\-----------/5---5\----|-------/7---7\----/3--/3--0-------.||
E ||.---------------------------------------|------------------/3--/3--0---5\--.||
B ||----------------------------------------|-0--0-------------------------5\---||
E ||-0--0-----------------0--0--------------|-----------------------------------||


E |----------------------------------------|
B |----------------------------------------|
G#|----------------------------------------|
E |----------------------------------------|
B |-0--0-2--0-3--0-2--0-3--0-2--0----------|
E |--------------------------------3/------|


E |-----------------------------------------------|
B |----------------------/12-----12------12\------|
G#|--------------------------12------12-----------|
E |-----------------------------------------------|
B |-0--0-2--0-3--0-2--0---------------------------|
E |-----------------------------------------------|


Verse:

E |-----------------------------------------|----------------------------------------------|
B |-----------------------------------------|----------------------------------------------|
G#|-----------------------------------------|----------------------------------------------|
E |-----------------------------------------|--------------------------------0--0----------|
B |-0--0-2--0-3--0-2--0-0--0-2--0-3--0-2--0-|-0--0-2--0-3--0-2--0-0--0-2--3-------3-2-0----|
E |-----------------------------------------|----------------------------------------------|


E |-----------------------------------------|-----------------------------------------|
B |-----------------------------------------|-----------------------------------------|
G#|-----------------------------------------|-----------------------------------------|
E |-0---------------------------------------|-----------------------------------------|
B |----0-2--0-3--0-2--0-0--0-2--0-3--0-2--0-|-0--0-2--0-3--0-2--0-0--0-2--0-3--0-2--0-|
E |-----------------------------------------|-----------------------------------------|


E ||------------------------|------------------------------------------||
B ||------------------------|------------------------------------------||
G#||.--/5----/5-\3--0-------|-----------------------------------------.||
E ||.--/5----/5-\3--0--/3---|-----------------------------------------.||
B ||-------------------/3---|-0--0-2--0-3--0-2--0-0--0-2--0-3--0-2--0--||
E ||------------------------|------------------------------------------||


Chorus:

E |--------------------|-----------------------|
B |--------------------|-----------------------|
G#|--------------------|-----------1/3---/5----|
E |-1--/3-----3--/5----|--5--/7----1/3---/5----|
B |-1--/3-----3--/5----|--5--/7----------------|
E |--------------------|-----------------------|

Into The Line chords – Cloud Control

 Cloud Control - Into The Line


INTRO

 Em D    \
 G A    / x4 (the guitar plays the chords along the third and fourth time)


    like this..
e|-------------------------------------------------------------|
B|--------8---------7--7--7------------------------------------|
G|--------9---------7--7--7-------------4-----------6--6--6----|
D|--------9---------7--7--7-------------5-----------7--7--7----|
A|-7-------------5----------------------5-----------7--7--7----|
E|-------------------------------3---------------5-------------|


VERSE 1
 Em D G A Em D G A    
Two young ones walking home in hands
 Em D 
I can't say how
     G A Em D G A 
I'm sitting on the beach with a guitar in my hand


VERSE 2
 Em D 
As they walk by
   G A Em D G A 
I pull my head down over my hands
 Em D 
Sing into the water
 G A Em D G A     
 And sing into the sky


CHORUS
 E D 
Look into the line
 G A E D G A 
 At all the families in the sky
 E D G A E D G A  
Some of them are smiling and they don't even know why


BREAK

 Em D    \
 G A    / x6 (guitar plays along fifth and sixth time)


- play CHORUS twice -


OUTRO

 E D    \
 G A    / x6

end on  E

Danger Line chords – Avenged Sevenfold

 intro:  Dm ........
 Dm E G D# Dm E Gm D# Dm 
My sixteen, locked and loaded

All fear has been avoided
 G 
You say the words and my weapon is drawn
 Dm 
This one could be my last time

Some people call it war crime
 Gm A 
I may be staring down a lethal sight

(To die)
 Dm Gm 
Nothing shocks you like a bullet hole
                        Dm 
Leaving my fear on the danger line
                        Gm 
Suffering a man should never know
                         Dm 
Leaving my faith on the danger line

(  Dm E Gm D#  )

 Dm 
I do this for my family

My daughter loves her daddy
 G 
Too many talk down on things they don't know
 Dm 
With colors never faded(1stchords.com)

Reckless and unabated
 Gm A 
They may take me but never take us all

(I'll crawl)
 Dm Gm 
Nothing shocks you like a bullet hole
                        Dm 
Leaving my fear on the danger line
                        Gm 
Suffering a man should never know
                         Dm 
Leaving my faith on the danger line

 A# 
I know what you're thinking
      ?                  
I've been there before
 A# F C Dm 
So think of the times, the time we spent laughing away
 A# F A 
So think of the times at home
 
(Life without a care)
 
 A# F 
Now I find myself in my own blood
(Never thought I'd lay in my own blood)

      C Dm 
The damage done is far beyond repair
  A# F 
I never put my faith in up above
(Never had much faith in up above)

     A 
But now, I'm hoping someone's there


 A# F 
I never meant to leave this world alone
   C Dm 
I never meant to (1stchords.com)hurt the ones who cared
      A# F 
And all this time I thought we'd just grow old
      A 
You know, no one said it's fair

 A# F 
Tell my baby girl that "It's alright"
               C Dm 
I've sung my last song today
             A# F A 
Remind the lord to leave his light on for me
      A# 
I'm free

 A# F C Dm A# F A  (4x)

I Walk The Line chords – Everly Brothers

 I Walk The Line:Everly Brothers.
Album - The Everly Brothers Sing
Great Country Hits - on WARNER Records
in 1963.

INTRO:  E 

#1.
 E B E 
I keep a close watch on this heart of mine.
 E F#m B E 
I keep my eyes wide open all the time.
            A E 
I keep the ends out for the tie that binds.
 E B E F 
Because you're mine, I walk the line.

#2.
 F Gm7 C F 
I find it very, very easy to be true.
 F C F 
I find myself alone when each day's through.
 Gm7 Bbm Bb F 
Yes, I'll admit that I'm a fool for you.
                C F F# 
Because you're mine, I walk the line.

#3.
 F# Db F# 
As sure as night is dark and day is light.
            Abm F# 
I keep you on my mind both day and night.
          B F# 
The happiness I've known proves that it's right.
                Db F# G 
Because you're mine, I walk the line.

#4.
 G D G 
You've got a way to keep me on your side.
             Am7 G 
You give me cause for love that I can't hide.
             C G 
For you I'd even try to turn the tide.
                D G Ab 
Because you're mine, I walk the line.

#5.
 Ab Eb Ab 
I keep a close watch on this heart of mine.
           Eb Ab 
I keep my eyes wide open all the time.
 Ab Db Ab 
I keep the ends out for the tie that binds.
 Ab Eb Ab 
Because you're mine, I walk the line.

OUTRO:
 Ab Eb Ab 
Because you're mine, I walk the line.
 Ab Eb Ab 
Because you're mine, I walk the line.
 Ab Eb Ab 
Because you're mine, I walk the line. 


A sixties smash from Kraziekhat.


Next In Line chords – After Image V3

 Next in Line

VERSE 1
 D D/F# 
What has life to offer me
 G A/G A 
When i grow old
 D D/F# 
What's there to look forward to
            G A/G A 
beyond the biting cold
 G A 
'Coz they say it's difficult
 G A 
Yes, stereotypical

Verse 2 (Same Chords as Verse 1)
What's there beyond sleep, eat, work in this cruel life
Ain't there nothin' else 'round here but human strife
'Cause they say it's difficult, yes, stereotypical
 G A G A 
Gotta be conventional, you can't be so radical.

Chorus:
       D D/F# 
So i sing this song to all of my age
       G 
For these are the questions
        A 
We've got to face
      D D/F# 
For in this cycle that we call life
 G A 
We are the ones who are next in line.

Repeat Verse1
 G A 
You gotta be conventional,
 G A 
You can't be so radical

Chorus

Bridge:
        D C     
And we gotta work, we gotta feel (we gotta feel)
        G A 
Let's open our eyes and do whatever it takes
     D C 
We gotta work, we gotta feel (we gotta feel)
                G A 
Let's open our eyes, oh-woh

Chorus
And sing this song to all of our age
For these are the questions we've got to face
For in this cycle that we call life
We are the ones who are next in line 

Chord pattern of verse
Sing this song for me
Sing this song for me

Down The Line Tabs by Buddy Holly

 INTRO

   E                                                            A
e|--0-0-0-3-0---0--------------0-0-0-3-0---0--------------0-0-0--3-0-3-0-3-||
B|------------3--------------------------3---------------------------------||
G|----------------3-3-4-2-0------------------3-3-4-2-0---------------------||
D|--------------------------2--------------------------2-------------------||
A|-------------------------------------------------------------------------||
E|-------------------------------------------------------------------------||

             E                 B    A            E
e|--0-0-0--0------0------0-0--2-2-3/2-0--0-0-0--0------0------0--||
B|-----------0/h3---0/h3--------------------------0/h3---0/h3----||
G|---------------------------------------------------------------||
D|---------------------------------------------------------------||
A|---------------------------------------------------------------||
E|---------------------------------------------------------------||



      E
Well, my old car's a rollin' down the line
 A
Thoughts of my baby runnin' through my mind
       B                 A
She's a-waitin' for me, I gotta be on time
        E    A    E    A    E    A    E                  A    E    A    E
I gotta roll roll roll roll roll roll roll, I gotta roll roll roll roll roll
A    E
roll roll

      E
Well, the white marker's flying off the road below
 A
When I'm really flying low
    B                A
My baby's waiting, I can't go slow
         E    A    E    A    E    A    E                  A    E    A    E
I gotta roll roll roll roll roll roll roll, I gotta roll roll roll roll roll
A    E
roll roll

           A                    E
Well, the big policeman pulled along side of me
           A                       E
He said, "Boy, you ain't quite as fast as me"
    A                            E
I showed him a picture of that baby of mine
          F#                      B7
He said, "Boy, you gotta roll on down that line"

      E
Well, my old car's a rollin' down the line
 A
Thoughts of my baby runnin' through my mind
         B                     A
She's a-waitin' for me I gotta be on time
         E    A    E    A    E    A    E                  A    E    A    E
I gotta roll roll roll roll roll roll roll, I gotta roll roll roll roll roll
A    E
roll roll

SOLO

  E                                                            A
e|--0-0-0-3-0---0--------------0-0-0-3-0---0--------------0-0-0--3-0-3-0-3-||
B|------------3--------------------------3---------------------------------||
G|----------------3-3-4-2-0------------------3-3-4-2-0---------------------||
D|--------------------------2--------------------------2-------------------||
A|-------------------------------------------------------------------------||
E|-------------------------------------------------------------------------||

  E
e|--0-0-0-3-0---0--------------0-0-0-2-2-3/2-0--0-0-0--0------0------0-----||
B|------------3------------------------------------------0/h3---0/h3-------||
G|----------------3-3-4-2-0------------------------------------------------||
D|--------------------------2----------------------------------------------||
A|-------------------------------------------------------------------------||
E|-------------------------------------------------------------------------||

e|-0/12--12--10--12--12--12--10--10--12--12--10--12--12--12--10--10--12--12||
B|-0/12--12--10--12--12--12--10--10--12--12--10--12--12--12--10--10--12--12||
G|-0/13--13--11--13--13--13--11--11--13--13--11--13--13--13--11--11--13--13||
D|-------------------------------------------------------------------------||
A|-------------------------------------------------------------------------||
E|-------------------------------------------------------------------------||

e|-10--12--12--10----------------------------3--0--0-0-3-0-3-0-3--0--------||
B|-10--12--1

Mendocino County Line chords – Willie Nelson V2

 Capo on 1st fret.**



INTRO   D Bm G 


VERSE I

 D Bm 
We counted the stars on the fourth of July,
 G A 
Wishin' we were rockets burstin into the sky.
 D Bm 
Talkin' about the redemption...leavin' things behind,
         G A D Bm G A           
As the sun sank west of the Mendocino county line.

 D Bm 
As fierce as Monday mornin' feelin' washed away
 G A 
I orchestrated paradise but couldn't make you stay.
 D Bm 
You dance with horses, through the sands of time
        G A D 
As the sun sinks west of the Mendocino county line.


CHORUS

 G A 
I have these pictures and I keep these photographs
                           G A 
To remind me of a time. These pictures and these photographs
                        G Bm 
Let me know I'm doing fine. I used to make you happy once
                      G A D Bm G A 
Upon a time but the sun sank west of the Mendocino county line.


VERSE II

 D Bm 
The two of us together, felt nothing but right
 G A 
Feelin' near immortal every Friday night.
 D Bm 
Lost in our convictions, lips stained with wine
         G A D 
As the sun sank west of the Mendocino county line.


CHORUS II

 G A 
I have these pictures and I keep these photographs
                           G A 
To remind me of a time. These pictures and these photographs
                        G Bm 
Let me know I'm doing fine. I used to make you happy once
                      G A D 
Upon a time but the sun sank west of the Mendocino county line.

BRIDGE

 C G 
I don't talk to you too much these days
 C D 
I just thank the Lord pictures don't fade
 C G 
I spent with an angel just passing through
 A 
Now all that's left is this image of you.

INSTRUMENTAL BREAK
 G A G A Bm A G 

VERSE III

 D Bm 
We counted the stars on the fourth of July,
 G A 
Wishin' we were rockets burstin into the sky.
 D Bm 
Talkin' about the redemption...leavin' things behind

REPEAT CHORUS

 Bm G A D Bm G 
    But the sun sank west of the Mendocino county line,
 A D Bm G A D     
Mendocino county line, oh the Mendocino county line.

TAG on D, Bm, G and A until the end.

Catch A Collapsing Star chords – The Mendoza Line

 the mendoza line,
catch a collapsing star

standard tuning
submitted by: ja

            C F C 
our margins and revisions, where we both first made our living
        C F G 
in an alcove filled with sawdust, there a new light fell upon us
            C                     
hail the lepers, call the outcasts
          F C 
did we just not know to ask
 Am F 
I could see you blazing through the frost
 Am F G 
in amazing grace and a hacking cough

 C F C C F G C F C Am F Am F 

took dictation, wrote it shorthand,
noone's sorrier than I am
I was young, that's no excuse
for the harm and the abuse
so what was it that you wanted
what would you've done if you had got it?
it was always ever gonna go so far
til someone thought to push you from the car

 Am F C G Am 
accept no imitation, baby, catch a collapsing star
       F G F G C 
but it's your limitations that make you what you are



Our margins and revisions,
where we both first learned forgiveness
by the moonlight in the forest,
where our lives spread out before us
so you wrote me in a letter
you can stay gone but don't stay bitter
it was always ever gonna end the same
til someone thought to push you 'neath the train

took vacation in new orleans
and I held you on the shore there
splurged your words, confused your thoughts
spoke in riddles noone got
so what was it that we wanted
and God forbid if we had got it

it was always gonna have to go too far
til someone turned the light out at the bar

accept no imitation, baby, catch a collapsing star
oh it's our limitations, 
it's our limitations,
oh it's our limitations,
that make us what we are

Speed Of A Whippoorwill chords – Chatham County Line

 -------------------------------------------------------------------------------
                             SPEED OF A WHIPPOORWILL - Chatham County Line
-------------------------------------------------------------------------------
: Eric Melton
 chromehorsediplomat

Tuning: Standard
Key:  C# 
Capo: 4th

[Intro:  G  x2]

 G G7 
I know I had to leave you, there's work to be done
 C G 
I swear when this job is over, it's to you I'm gonna run
 G G7 
Long wind(?) blow, blow on down the line
 C G 
I'll be in the arms of my darling, in just three weeks time

 C G C G 
I'll be coming home, pockets full of bills
 C G D G 
I'll be coming home, speed of a whippoorwill

[Break:  G  x2]

 G G7 
Roll tracks, roll, lay a half mile-a-day
 C G 
Set the spike and the hammer, fill my pockets with pay
 G G7 
Dynamite that rock, keep the cross ties flat and square
 C G 
Dreams of my darling, two weeks till I'm there

 C G C G 
I'll be coming home, ready for a thrill
 C G D G 
I'll be coming home, speed of a whippoorwill


[Instrumental chorus x1 (4 bars)]

 G G7 
Water boy come running, I'm dry as the dirt
 C G 
The days keep getting longer, I've got hurt on top of hurt
 G G7 
I hear the steam engine, rolling from the west
 C G 
Tracks will join in a few more days, and I'll finally get my rest

 C G C G 
I'll be coming home, ready for a thrill
 C G D G 
I'll be coming home, speed of a whippoorwill
 C G C G 
Yes I'll be coming home, pockets full of bills
 C G D G 
I'll be coming home, speed of a whippoorwill

[Instrumental chorus x3 (12 bars) until end]

Fall Line chords – Jack Johnson V3

 Fall Line
Jack Johnson

Chords are: 

      D G A A/F# A/G A7sus4 
   XX0232  320033  X0222X  X0422X   X0522X    X00030

Intro chord:  D D 
And by the way You know that hope will make you strange

Make you blink, make you blank, Make you sink
                 G 
It will make you afraid of change

Enough to blame the box with the view of the world
                   D  
And the walls that fill the frame

I turn it up But then I turn it off Because I can't stand
                                  G 
When they start to talk about The hurting and killing

Whose shoes are we filling The damage and ruin

And the things that we're doing
      D 
Gotta We gotta stop We gotta turn it all off We gotta rewind
                             A A/F# A/G 
Start it up again Because we fell across the fall line
              A/F# G D        
Ain't nothing sacred anymore Nah nah nah nah nah nah nah nah 

  A7sus4 ,  D ,  A7sus4 ,

 D 
Somebody saw him jump Yeah, but nobody saw him slip

I guess he lost a lot a hope And then he lost a grip
 G 
And now he's lying in the freeway In the middle of this mess

Guess we lost another one, just like the other one
 D 
Optimistic, hypocrite that didn't have the nerve to quit

The things that kept him wanted more 'Til he finally reached the core
   A A/F# A/G A/F# G 
He fell across the fall line Ain't nothing sacred anymore
                               D 
Nah nah nah nah nah nah nah nah


Just a couple minor changes to how I've always played it compared to the other 
tabs on here. Thanks guys. 
-Dakota Pauley

This Is How We Roll chords – Florida Georgia Line V2

 Chord Progression-  G Cadd9 D  ( Em )

 C  is played as  Cadd9  (x32033)

Chords are picked in the verses

Capo 1st:

 Cadd9 G 
The mixtape's got a little Hank, little Drake
   D 
A little something bumping, thump, thumping on the wheel ride
 Cadd9 G 
The mix in our drink's a little stronger than you think
 D 
So get a grip, take a sip of that feel right
 Cadd9 G 
The truck's jacked up, flat bills flipped back
 D 
Yeah you can find us where the party's at


                Cadd9 G 
This is how we roll
 D Cadd9 G 
We hanging round singing out everything on the radio
 D 
We light it up with our hands up
                Cadd9 
This is how we roll
                G 
This is how we do
                        D Em 
We're burning down the night shooting bullets at the moon baby
                Cadd9 G D 
This is how we roll


                          Cadd9 
Yeah baby this is how we roll
                 G 
We rollin' into town
                      D Em 
With nothing else to do we take another lap around
                    Cadd9 G 
Yeah holla at your boy if you need a ride
                  D Em 
If you roll with me yeah you know we rollin' high
                Cadd9 G 
Up on those 37 Nittos, windows tinted hard to see though
                   D Em 
How fresh my baby is in the shotgun seat oh
                     Cadd9 G 
Them kisses are for me though, automatic like a free throw
                     D Em 
This life I live it might not be for you but it's for me though

Let's roll!

                Cadd9 G 
This is how we roll
 D Cadd9 G 
We hanging round singing out everything on the radio
 D 
We light it up with our hands up
                Cadd9 
This is how we roll
                G 
This is how we do
                      D Em 
When the world turns ugly I just turn and look at you baby
                Cadd9 G D 
This is how we roll

Luke Bryan Rap:
                        Cadd9 
Yeah we're proud to be young
                 G 
We stick to our guns
                D 
We love who we love and we wanna have fun
                      Cadd9 
Yeah we cuss on them Mondays
                  G 
And pray on them Sundays
         D 
Pass is around and we dream about one day

                Cadd9 G 
This is how we roll
 D Cadd9 G 
We hanging round singing out everything on the radio
 D 
We light it up with our hands up
                Cadd9 
This is how we roll
                G 
This is how we ride
                    D Em 
We slingin' up the mud, cuttin' through the countryside baby
                Cadd9 G D 
This is how we roll


                Cadd9 G 
This is how we roll
 D Cadd9 G 
We hanging round singing out everything on the radio
 D 
We light it up with our hands up
                Cadd9 
This is how we roll
                G 
This is ho

Tennessee Line chords – Chris Daughtry V8

 Capo 1st Fret

Verse 1:

 Am7 F Am7 F 
 Open my lungs, to breathe in forgiveness and love
 Am7 F C G 
 Haunting me now, reminders of how I used to be
 Am7 F Am7 F 
 On down the road, the troubles sure to follow 
 Am7 F 
 Looking out the window,  
 C G 
Hell, if I know where I will go 
 F G F G 
So I'll just keep on driving

Chorus:
 C G Am7 
 On my way to LA, looking into the rear-view
 F 
 As the roads fade away
 C G Am7 
 I swore off my past, the first and last bad call 
              F 
 That I ever made
 C G Am7 
 Tell me how to make right, every wrong turn that I've learned 
        F 
 That this could all end tonight
 C G Am7 
 Tennessee Line, just changed my mind 
            F C F 
 With this, my heart I'll follow this time

Verse 2:
 Am7 F Am7 F 
 Who would've known, that pride is hard to swallow
 Am7 F C 
 As I rest on the shoulder of a road growing colder
                     G 
 With the trouble I own 
                F G F G 
 Should I just keep on driving?

Chorus:
 C G Am7 
 On my way to LA, looking into the rear-view
 F 
 As the roads fade away
 C G Am7 
 I swore off my past, the first and last bad call 
              F 
 That I ever made
 C G Am7 
 Tell me how to make right, every wrong turn that I've learned 
        F 
 That this could all end tonight
 C G Am7 
 Tennessee Line, just changed my mind 
            F 
 With this, my heart I'll follow this time

Bridge:
 G Am7 
  I know I must be doing something right
 G Am7 
  Head the other way back to where I started out
 G Am7 
  Ask myself if I can turn it all around tonight
 C G 
  And stop living with doubt, Yeah

Chorus:
 C G Am7 
 On my way to LA, looking into the rear-view
 F 
 As the roads fade away
 C G Am7 
 I swore off my past, the first and last bad call 
              F 
 That I ever made

Modulate**
 D A 
 Tell me how to make right 
        Bm7 
 Every wrong turn that I've learned 
     G 
 So this could all end tonight
 D A Bm7 
 Tennessee Line, just changed my mind 
             G 
 With this, my heart I'll follow this time
 D A 
 I swore off my past 
                     Bm7 G 
 The first and last bad call that I ever made
 D A 
 I swore off my past 
                     Bm7 G 
 The first and last bad call that I ever made
 D A 
 I'm gonna turn it all around tonight
 Bm7 G  (Hold)
 Turn it all around tonight
                  D 
 At the Tennessee line

People Back Home chords – Florida Georgia Line V2

 
Capo on 1
Tuning: Standard

Intro:  F#m ,  D ,  A ,  E 


[CHORUS]
  F#m D 
 This is for my people back home
                     A  
 We're lighting one up, feel the love
       E 
 We wouldn't be here without ya
  F#m D 
 This is for my people back home
                          A 
 Mix it strong, pour it out no doubt
           E 
 We're always thinking about ya
 F#m D  
    Whoa. Ain't gonna let you down
 A E 
    Whoa. Just wanna make you proud
  F#m D 
 This is for my people back home
                  A 
 My people back home
                  E 
 My people back home

      F#m 
 See this one's for my people
              D     
 From the backwoods to the steeple
            A 
 From my daddy and that preacher man
         E 
 That taught me to run from evil
            F#m 
 From the people that I'm still so cool with
            D 
 And the people that I went to school with
            A                                     
 From the boys I ran around and 
                 E 
 stomped them grounds and broke them rules with
  F#m D 
 This one's for my family and the way that I was raised
               A E 
 And now my life's another city, another picture, another stage
        F#m 
 But I hope you know I miss ya
       D 
 And part of me's still with ya
            A E 
 And no matter where I go or what I do I won't forget ya


[CHORUS]
  F#m D 
 This is for my people back home
                     A 
 We're lighting one up, feel the love
        E 
 We wouldn't be here without ya
  F#m D 
 This is for my people back home
                          A 
 Mix it strong, pour it out no doubt
          E 
 We're always thinking about ya
 F#m D 
    Whoa. Ain't gonna let you down
 A E 
    Whoa. Just wanna make you proud
  F#m D 
 This is for my people back home
                   A 
 My people back home
                  E 
 My people back home

  F#m 
 This is for the one's who believed in me
           D 
 For the ones who took the time to breathe the life in me
      A 
 You got my heart beating inside of me
       E 
 You made me what I tried to be
          F#m 
 For the ones that love my music
                 D 
 Said you could do it, if you choose this
           A 
 So we dreamed big and we worked hard
          E 
 Now we got the whole world cruisin'


[CHORUS]
  F#m D 
 This is for my people back home
                     A 
 We're lighting one up, feel the love
        E 
 We wouldn't be here without ya
  F#m D 
 This is for my people back home
                          A 
 Mix it strong, pour it out no doubt
          E 
 We're always thinking about ya
 F#m D 
    Whoa. Ain't gonna let you down
 A E 
    Whoa. Just wanna make you proud
  F#m D 
 This is for my people back home
                  A 
 My people back home
                  E 
 My people back home


 Guitar Solo:  F#m ,  D 

Ruination chords – Chatham County Line

 -------------------------------------------------------------------------------
                             RUINATION - Chatham County Line
-------------------------------------------------------------------------------
: Eric Melton
 chromehorsediplomat

 Route 23 (2005, Yep Roc)

Ruination - Chatham County Line
Key:  F 
Capo 1

 E A E 
Here's to the ruination of my soul
 E A E 
I tried to fight but the devil took hold
 E Bm A E 
Weary boy turned to weary man
 E A E 
Lettin' someone else guide his hand

 E A E 
Here's to the soldier lying in bed
 E A E 
One soldier lives while the other is dead
 D Bm A E 
I see wine (?) all in a row
 E A E 
When man goes to war, where does he go?


Break:
 D Bm A   -  E  (quicker twice)

 E A E 
Here's to the vagrants lying in the street
 E A E 
One man's trash is another man's treat
 E Bm A E 
How long does forever last?
 E A E 
When is the past really the past?



 E A E 
Here's to the ruination of my soul
 E A E 
I tried to fight but the devil took hold
 D Bm A E 
Weary boy turned to weary man
 E A E 
Lettin' someone else guide his hand

TAG:
 D Bm A E 
Weary boy turned to weary man
 E A E 
Lettin' someone else guide his hand


Outro:
 D Bm A   -  E  (four times and end on  E )

Over The Yellow Line chords – My Own Rain

 My Own Rain - Over The Yellow Line

Official You Tube Page: http://www.youtube.com/user/myownrainofficial
Official Facebook Page: https://www.facebook.com/myownrainofficial

22/11/2013
By: pellic383
pellic383@hotmail.it

Hello!
These are the chords of "Over The Yellow Line" by My Own Rain.
Davide Pelliciari (Band's guitarist) plays it in Tab D, but you can also play this 
song in STANDARD tuning.

Standard Tuning

CAPO on 10th Fret
all chords relative to capo.


Intro:  Am  -  C  -  G  x2


 Am C G 
You'll remember when the snow fell down

 Am C G 
And it doesn't hurt us

 Am C G 
You'll remember the letter written

 Am C G 
And the finished pen.

 Am C G 
You'll remember the screams and cryes

 Am C G 
And that railroad infinity.


Chorus:


 Am F C Am7 
Sitting here, over the yellow line.

 F C Am7 
No limits, just promises.

 Am F C Am7 
The white whisper over our heads

 F C Am7     
And the smoke barely distinguished


 Am  -  C  -  G  x3


 Am C G 
I've painted a sky full of stars

 Am F C Am7 
Where also winters smelled like sea

 Am C G 
And the eyes met

 Am C G 
In dew's whisper


Chorus 2:


 Am F C Am7 
Sitting here, over the yellow line.

 F C Am7 
No limits, no horizons.

 Am F C Am7 
Astride, like a traveller

 F C Am7 
Waiting for his itinerary


Bridge:


 F C Am7 
The train will pass

 F C Am7 
But you won't catch it

 F C Am7 
And the snow starts to fall

 F G 
I'll wait, I hope x6


Chorus:


 Am F C Am7 
Sitting here, over the yellow line.

 F C Am7 
No limits, just promises.

 Am F C Am7 
The white whisper over our heads

 F C Am7 
And the smoke barely distinguished


Repeat Intro


End on  Am

A Line Too Late – Hardshi Tabs

 LEAD GUITAR - Drop D
INTRO
--------------------------------------------------------------|
------------13------------------13----------------------------|
------10--------10-------10-----10----------------------------|
---12----12--------12-12----12--12----------------------------|
--------------------------------------------------------------|
--------------------------------------------------------------|

------------------------------------------------------------------------------|
------------13-------------------------------------13----------------13-------|
------10-------10-------10--------10---------10-------10-------10--------10---|
---12----12-------12-12----12--10----10---------------------------------------|
------------------------------------------13----13-------13-13-----13------13-|
------------------------------------------------------------------------------|

PRE VERSE

----------------------------------------|
---13~---13~---13~----------------------|
---10~---10~---10~----------------------|   X2
---12~---10~----------------------------|
---------------13~----------------------|
----------------------------------------|

VERSE

-------------------------------------------|
---13--------------------------------------|
-----10----10-9-7-7/9-10-------------------|
-------------------------------------------|
-------------------------------------------|
-------------------------------------------|


--------------------------------------------|
---13---------------------------------------|
-----10---10-9-12-12/14-14-12---------------|    X2
--------------------------------------------|
--------------------------------------------|
--------------------------------------------|

CHORUS SAME AS INTRO

PRE VERSE AND VERSE ARE REPEATED

BRIDGE

-------------------------------------------------------|
-------------------------------------------------------|
--7----9----11----13-----12----14----------------------|
--x----x-----x-----x-----x-----x-----------------------|
--5----7-----9----13----10----12-----------------------|
-------------------------------------------------------|

-----------------------------------------------------------------|
-----------------------------------------------------------------|
--7----9----11---5----3------------------------------------------|
--x----x----x----x----x------------------------------------------|
--5----7----9----3----1------------------------------------------|
-----------------------------------------------------------------|