Tag: loni

Choci Loni Tabs – Young Marble Giants

 -------------------------------------------------------------------------------
                             Choci Loni - Young Marble Giants
-------------------------------------------------------------------------------
: Helpfull Friend


I couldn't find any tab for this, so I made my own. This is the way I would play the song,
maybe not totally accurate, but the idea is there to be played around with now. Enjoy.

Tuning: Standard

e|-----------------------------------------|------------------------------------|
B|-----------------------------------------|------------------------------------|
G|-----------------------------------------|------------------------------------|
D|-----------------------------------------|------------------------------------|
A|--2-h4---2-h4---2-h4---2-h4---2-h4---2---|--2---4---2---0-------0---0---------|
E|-----------------------------------------|------------------2-----------2---0-|

e|-----------------------------------------|------------------------------------|
B|-----------------------------------------|------------------------------------|
G|-----------------------------------------|------------------------------------|
D|-----------------------------------------|------------------------------------|
A|--2-h4---2-h4---2-h4---2-h4---2-h4---2---|--2---4---2---0-------0---0---------|
E|-----------------------------------------|------------------2-----------2---0-|

e|-----------------------------------------|------------------------------------|
B|-----------------------------------------|------------------------------------|
G|-----------------------------------------|------------------------------------|
D|-----------------------------------------|------------------------------------|
A|--2-h4---2-h4---2-h4---2-h4----3----2----|--2---4---2---0-------0---0---------|
E|-----------------------------------------|------------------2-----------2---0-|

e|-----------------------------------------|----------------------------------------------------|
B|-----------------------------------------|----------------------------------------------------|
G|-----------------------------------------|----------------------------------------------------|
D|-----------------------------------------|----------------------------------2---3---2---3---2-|
A|--2-h4---2-h4---2-h4---2-h4---2-h4---2---|--2---4---2---0-------0---0-------------------------|
E|-----------------------------------------|------------------2-----------2---------------------|

************************************

| /   slide up
| \   slide down
| h   hammer-on
| p   pull-off
| ~   vibrato
| +   harmonic
| x   Mute note
| b   Bend
| pb  Pre-bend
| br  Bend release
| pbr Pre-bend release
| brb Bend release bend

************************************