Tag: Lost

Lost In You chords – Michael Wainwright

 C D G 
Oh my love...

        C D G 
I gave everything not to be without,

       C D G 
And I ran so hard at the face of doubt,

     C D G 
And I got lost in you.



 C D G 
Oh my friend...
          C D G 
Will you come for me when I reach the end,
       C D G  
and I climb so high and I fell so deep,
      C D G 
when I got lost in you.


        C D G  
Well I tried so hard not to show it,

 Em 
I tried so hard yeah I tried so hard,

       Am 
But I lost it,

 C D G 
Oh how I'm lost in you,

 C D G 
Ooohhh I got lost in you x3

Regina Dont Get Lost Tabs – The Cribs

 -------------------------------------------------------------------------------
                     Regina Don't Get Lost - The Cribs
-------------------------------------------------------------------------------
: Rory H
 rdeh10@googlemail.com

Tuning: EADGBe

Hey guys! Another Cribs tab for you here :) This time it is another B-side 'Regina Don't Get Lost'. 
Excellent track with a wonderful tone to it. This isn't perfect as usual but definitely sounds fine to
me! If you have any improvements or corrections, be sure to leave them in the comments, or hit me up
with an email :)

INTRO:
e|-----------------------------------|--------------------------------|
B|--------11-------11-------11-------|--------8-------8-------8-------|
G|-----8-----8--------8---------8----|----10----10------10-------10---|
D|-10----------10-------10--------10-|-8-----------8-------8--------8-|
A|-----------------------------------|--------------------------------|
E|-----------------------------------|--------------------------------|

e|-----------------------------------|--------------------------------|---------------------|
B|--------11-------11-------11-------|--------8-------8-------8-------|---------------------|
G|-----8-----8--------8---------8----|----10----10------10-------10---|---------------------|
D|-10----------10-------10--------10-|-8-----------8-------8--------8-|---------------------|
A|-----------------------------------|--------------------------------|-/10~----------------|
E|-----------------------------------|--------------------------------|---------------------|

VERSE 1:
e|------------------------|----------------------------------|---------------------------|
B|------------------------|----------------------------------|---------------------------|
G|------------------------|----------------------------------|---------------------------|
D|------------------------|-------------------------8--8-8-8-|---------------------------|
A|-10-8-10-8-6-x-6--6-6-6-|-10-10-8-10-\6-6-x-6-6-6----------|-10-10-8-10-\6-6-x-6-------|
E|------------------------|----------------------------------|---------------------6-6-6-|

e|----------------------------------|---------------------------|------------------------|
B|----------------------------------|---------------------------|------------------------|
G|----------------------------------|---------------------------|------------------------|
D|-------------------------8--8-8-8-|---------------------------|------------------------|
A|-10-10-8-10-\6-6-x-6-6-6----------|-10-8-10-8-\6-6-x-6--6-6-6-|-10-10-8-10-\6--6-6-6-6-|
E|----------------------------------|---------------------------|------------------------|

PRECHORUS:
e|---------------------------|-------------------------|---------------------------|
B|---------------------------|-------------------------|---------------------------|
G|---------------------------|-------------------------|---------8-----------------|
D|---------8-----------------|---------8---------------|-10-8-10----10-10-10-10-10-|
A|-10-8-10----10-10-10-10-10-|-10-8-10----10-10-10-8-8-|---------------------------|
E|---------------------------|-------------------------|---------------------------|

e|-----------------------|-----------------------------|------------------------------------|
B|-----------------------|----------11-----------------|----------11--11-11-13--------------|
G|---------8--8-8-10-----|-12-10-12-----12-12-12-12-12-|-12-10-12--------------7--7-7-7-7-7-|
D|-10-8-10-----------8-8-|-----------------------------|------------------------------------|
A|-----------------------|-----------------------------|------------------------------------|
E|-----------------------|-----------------------------|------------------------------------|

e|------------------------|-------------------------|
B|------------------------|-----8-------------------|
G|-8--8-8-8-10-10-8-8-7-7-|8-10---10--8--8-8-7--7-7-|
D|------------------------|-----

Lost As chords – Brother And Bones

 (capo 3)
Verse 1
 G Bm D A 
Show me hope is watertight,
    G Bm D A 
An anchor for these lonely nights
            G D Bm A G Em 
Cos this sinking ship has land in sight
       G D Bm A G D  
Until all is lost as one, ‘til all is lost as one

Verse 2
Even love gets cold at night
So turn the other cheek with your lips sealed tight
And winter hold your breath tonight
Until all is lost as one, ‘til all is lost as one

Interlude
 Bm G D  x2

Verse 3
If only time was paper thin
Not these four walls that keep us in
This sleepless dream we’re drowning in
Until all is lost as one, ‘til all is lost as one

Pre-chorus
           A Bm G 
Wont you send me, wont you send me your burden
      A Bm G A G D 
And I’ll be, I’ll be begging to show you how mercy began

Interlude

Chorus
 Bm G D 
See how far we’ve come,
    Bm G D 
If all is lost as one
 Bm G D 
See how far we’ve come,
    Bm G D 
If all is lost as one
    Bm G D Bm G D 
If all is lost as one, if all is lost as one

Get Lost Find Yourself chords – Chunk No Captain Chunk

 verbesserungsvorschläge sind willkommen!!! :D

Capo 1

PICKINGMUSTER VERSE:

das gleiche pickingmuster auch im pre-chorus :)


          C G D        am        C        em        am
e/-------0------------3---------2---------------0----------------------------
h/-----1---1--------0---0------3-3------1------1-1-------0---------1---------
g/----0-----0------0-----0----2---2----2-2----0---0-----0-0-------2-2--------
d/---------------------------0--------2---2------------2---0-----2---2-------
a/--3--------------------------------0-------3--------2---------0------------
E/---------------3-----------------------------------------------------------

VERSE:
 C G D           am      C 
Somewhere in between the end and the beginning
  em             am
i found a way to finally
 C G D         am       C 
pick up the pieces of the mess i used to be
    em           am   
and sail away to nowhere

PRE-CHORUS:

       G D     am
cause all this time
       G D     am
i've walked the line
     G D  am
but deep inside
       G D C 
i was waiting for a sign


CHORUS:
   G D C G 
I lost my way but i found myself
em        G C G 
hear the sound of open lands
   G D C G 
i guess i belong somewhere else
          em      G C G 
but we're on the ground christ where i stand

VERSE:
   C G D             am     C 
I spent too many nights looking back on my life
    em               am
and faking smiles to everyone
 C G D               am       C      
i used to be the one wondering with outward eyes
    em             am
and trying hard to clear his mind

PRE-CHORUS:

     G D     am
and all this time
      G D    am
i've walked the line
     G D  am
but deep inside 
       G D C 
i was waiting for a sign

CHORUS:

   G D C G 
i lost my way but i found myself
em        G C G 
hear the sound of open lands
   G D C G 
i guess i belong somewhere else
          em      G C G 
but we're on the ground christ where i stand

   
BRIDGE: G D em

     G C 
got lost and found
  D               em
myself doing much better
      G C 
went far from this town
        D            em
and i'm running ever further
     G C 
got lost and found
  D               em
myself doing much better
      G C 
went far from this town
        D            em
and i'm running ever further

If I Lost The Best Thing chords – Yael Naim

 ---CAPO ON 2nd FRET---

If I Lost The Best Thing by Yael Naim is performed in a traditional french folk style in 3/4, a sort of waltz
with an alternating bass note followed by the upper notes played together in harmony.

Example: The Intro is the A chord, so you would play:

e|--------------------------------------|
B|-----2--2-----2--2-----2--2----2--2---|
G|-----2--2-----2--2-----2--2----2--2---|
D|-----2--2-----2--2-----2--2----2--2---|
A|--0-----------------0-----------------|
E|------------0----------------0--------| 

And so forth. Pretty much all the chords in the song are or can be played like this. Also I play E7 with 
an added high D because it sounds better, so E7 * is optional E7/D

Intro:  A  //

 A E7  *            
If I lost the best thing
       F#m E7  *
I ever had
 D7 
Because of me
 A E7  *
I was selfish
 E7 F#m E7  *
Stupid, and blind
 D7 
How can it be

 A D Dm 
That it's all ending
 A D Dm 
Now we can stop pretending
 F#m A E7 D 
It just faded so fast I think
 A 
I lost you

 A E7  *
If you were the best thing
       F#m E7  *
I ever had
 D7 
To blind to see
 A E7  *
We were happy,
           F#m E7  *   D7 A 
How can I find some peace in me
 A D Dm 
Cause we're both changing
 A D Dm 
It's not that we stopped caring
 F#m A E7  *            D 
It's just time that has made me grow
 A 
Apart from you

 E7  *               A 
Cause it's over, it's all over,
 D A 
it's all over, it's over
 E7   *              A 
it's over, it's all over, 
 Dm A 
it's over now
 A E7  *
If we loose the best thing
        F#m E7  *
We ever had
 D7 
If we forget
 A E7  *       F#m E7  *
Just hold me here in your arms
 D7 
Like we just met
 A D Dm 
We will be tender
 A D Dm 
and say that we'll be for ever
 F#m A E7  *          D 
And just hope it will last because
 A 
I found you
 A D Dm 
It's not that we've stopped fighting
 A D Dm F#m A E7  *     D 
It's not that it's not hard just to stand hand in hand
              A 
And always love you
  D A 
Because I love you 
 

Lost Together chords – Blue Rodeo V2

 Blue Rodeo - Lost Together

Intro   G D/F#  | Em D    | G D/F#  | Em      ||


Verse 1
 G D/F# Em D G D/F# Em 
Strange and beautiful are the stars tonight that dance around your head
 G D/F# Em D G D/F# Em           
In your eyes I see that perfect world, I hope that doesn't sound too weird

 C D G 
 And I want all the world to know
 C D Em               D*
 That your love's all I need all that I need

D*
-2--2-3--3-2--2-3--2-|
--3----3----3---3--3-|
---2----2----2--2--2-|
----------------0--0-|
---------------------|
---------------------|


Chorus
              G D/F# Em C              D*
 And if we're lost    then we are lost together
                G D/F# Em C              D*
 Yeah, if we're lost,      we are lost together



Verse 2
 G D/F# Em D G D/F# Em 
 I stand before this faceless crowd; I wonder why I bother
 G D/F# Em D G D/F# Em 
 So much controlled by so few, stumbling from one disaster to another

  C D G 
 I've heard it all so many times before
 C D Em                D*
 It's all a dream to me now, a dream to me now


Chorus
              G D/F# Em C              D*
 And if we're lost    then we are lost together
                G D/F# Em C              D*
 Yeah, if we're lost,      we are lost together


Interlude   C      | D G  | C D   | Em      | D Cadd9  | G/B D/A  || G      




Verse 3
 G D/F# Em D G D/F# Em 
 In the silence of this whispered night I listen only to your breath
 G D/F# Em D G D/F# Em 
 And in that second of a shooting star somehow it all makes sense

 C D G 
 And I want all the world to know
 C D Em               D*
 That your love's all I need all that I need


Chorus
              G D/F# Em C              D*
 And if we're lost    then we are lost together
                G D/F# Em C              D*
 Yeah, if we're lost,      we are lost together


Interlude    G D/F#  | Em C   |D*    |     ||x2


Chorus
                G D/F# Em C              D*
 Yeah, if we're lost,   then we are lost together
                G D/F# Em C              D*
 Yeah, if we're lost,   then we are lost together, together, together

   

Outro   G D/F#  | Em D   | G D/F#  | Em      | G D/F#  | Em D   | G   D/F@  | Em

Positively 4Th Street chords – Bob Dylan V5

 ---------------------------------------------------------------------------
          Positively 4th Street– Bob Dylan
---------------------------------------------------------------------------
: maguri
Tuning: Standard

Bob Dylan
Positively 4th Street (1965)
(Dylan)

Non-album single
Now on: “Side Tracks” and several Greatest Hits compilations

The bass sometimes plays notes other that the root. I indicated these 
chords as slash chords here. It is of course possible to play them 
as regular chords and just leave out the note after the slash.

The original recording is in F#. The live versions I know are mostly in 
G, though (easy to play and sounding great; maybe the guitar is tuned down 
one semi-tome on the original version?). To play G, one would have to 
transpose this tab up 3 steps and leave off the capo. Enjoy!

---------------------------------------------------------------------------

capo: 2nd fret
play: E
key: F#

---------------------------------------------------------------------------
CHORDS

        E-A-D-G-B-e
B/D#    x-6-4-4-4-x
A/C#    x-4-2-2-2-x
A/E     0-x-2-2-2-0

---------------------------------------------------------------------------

capo 2nd fret

INTRO
|  E  | % |


VERSE 1
 E F#m 
You got a lotta nerve
    A E 
To say you are my friend
      E B 
When I was down
 A C#m B       
You just stood there grinning


VERSE 2
 E F#m 
You got a lotta nerve
            A E 
To say you got a helping hand to lend
 E B A 
You just want to be on
     C#m B       
The side that's winning


VERSE 3
 E F#m 
 You say I let you down
     A E 
You know it's not like that
    E B 
If you're so hurt
 A C#m B       
Why then don't you show it


VERSE 4
 E F#m 
 You say you lost your faith
     A E 
But that's not where it's at
     E B/D# A/C# 
You have no faith to lose
 C#m B       
 And you know it


VERSE 5
 E F#m 
 I know the reason
          A E 
That you talk behind my back
   E B A/C# C#m 
I used to be among the crowd
        B       
You're in with


VERSE 6
 E F#m 
 Do you take me for such a fool
 A E 
 To think I'd make contact
          E B 
With the one who tries to hide
         A/C# C#m B       
What he don't know to begin with


VERSE 7
 E F#m 
 You see me on the street
 A E 
You always act surprised
     E B A 
You say, "How are you?" "Good luck"
     C#m B       
But you don't mean it


VERSE 8
          E F#m 
When you know as well as me
              A E 
You'd rather see me paralyzed
 E B A C#m 
Why don't you just come out once
     B       
And scream it


VERSE 9 
 E F#m 
 No, I do not feel that good
                A E 
When I see the heartbreaks you embrace
    E B A/C# 
If I was a master thief
    C#m B       
Perhaps I'd rob them


VERSE 10
     E F#m 
And now I know you're dissatisfied
             A E 
With your position and your place
 E B A/

All The Poor And Powerless chords – The Digital Age V3

 Intro 1 (x2):  E F#m7 E/G# A C#m7 B E/G# A 

Intro 2 (x2):
  E F#m7 E/G# A C#m7 B E/G# A 
Oh............, ah.........

Verse 1:
 E F#m7 E/G# A 
All the power and powerless
     C#m7 B E/G# A 
And all the lost and lonely
 E F#m7 E/G# A 
All the thieves will come confess
     C#m7 B E/G# A 
And know that You are holy
     C#m7 B E/G# E 
And know that You are holy

Chorus 1:
     C#m7 A E 
And all will sing out, hallelujah
     C#m7 A E 
And we will cry out, hallelujah
     C#m7 A E 
And all will sing out, hallelujah
     C#m7 A E Bsus B 
And we will cry out, hallelujah

Verse 2:
 E F#m7 E/G# A 
All the hearts who are content
     C#m7 B E/G# A 
And all who feel unworthy
 E F#m7 E/G# A 
All who weep with nothing left
      C#m7 B E/G# A 
Will know that You are holy
      C#m7 B E/G# E 
Will know that You are holy

Chorus 2:
     C#m7 A E 
And all will sing out, hallelujah
     C#m7 A E 
And we will cry out, hallelujah
     C#m7 A E 
And all will sing out, hallelujah
     C#m7 A E B E 
And we will cry out, hallelujah

Bridge 1:
 E B 
Shout it, go on and scream it from the mountains
                          C#m7 A 
Go on and tell it to the masses that He is God (x2)
 E B 
Shout it, go on and scream it from the mountains
                          C#m7 A 
Go on and tell it to the masses that He is God, yeah
 E B 
Shout it, go on and scream it from the mountains
                          C#m7 A 
Go on and tell it to the masses that He is God

Bridge 2 & Chorus 3(lyrics only):
 E B 
Shout it, go on and scream it from the mountains
                          C#m7 A E 
Go on and tell it to the masses that He is God

Chorus 3:
     E 
And we will sing out, hallelujah
     B 
And we will cry out, hallelujah
     C#m7 A 
And we will sing out, hallelujah

Tag:
  E F#m7 E/G# A C#m7 B E/G# A 
Oh............, ah.........
  E F#m7 E/G# A C#m7 B E/G# E 
Oh............, ah.........

Hey! Hope you enjoy the tab! I pray that this song will blow you away as much as 
it did to me. God bless!

Tyler
Psalm 121:1-2

I Get Lost chords – Breach The Summit

 So I love this song and practically everything Breach The Summit does... My band 
and I wanted to cover it, but it wasn't tabbed yet. I decided to do it myself! 
This is done by ear, but I think it's fairly accurate (: If not comment what needs to be fixed!

Twitter: @_inexperienced || @kaitlynddd

|| Capo 2 ||

 C 
Several years down and I
             G 
I've yet to find love
   D 
It's bating me onward
                          C 
It gives me a reason to sing

 C 
And I sit alone in my thoughts
                             G 
Cause they're all that I've got
 D 
Sometimes I wonder
                                   C 
If somewhere she's looking for me

 C G D 
And I get lost sometimes
 C G D 
I get lost sometimes
     C G D 
Yeah I get lost sometimes
               C 
On my way to you

 C 
I feel more than alone
                G 
I feel that emptiness
       D 
That burns down inside me
                                 C 
Till I've got no reason to sing

                C 
And in the pit of my stomach it churns
                    G 
You'll never find love
        D 
You'll end up alone
                  C 
No you'll never find somebody

 C G D 
And I get lost sometimes
 C G D 
And I get lost sometimes
 C G D 
And I get lost sometimes
               C 
On my way to you
 C G D 
And maybe I will find
 C G D 
Yeah maybe I will find
 C G D 
Yeah maybe I will find
              C 
Someone like you


 Em 
And one day
     C 
I'll see her there
         G 
With shining eyes
              D 
Hair falling down her sweet head
        Em 
And I'll say
         C 
Yeah I'll scream it
        G D 
I'm in love


 C 
Several years down and I
             G 
I've yet to find love
   D 
But somehow I know it

That somewhere
                        C 
She's looking for me

Repeat Chorus and add alternate

It Must Have Been Love chords – Roxette V5

 It Must Have Been Love - Roxette

Previous tabs were almost complete, but there were some chords missing and there 
are some errors that I corrected in this tab. I entered the chords for solo and 
the right chords for ending... Have fun with this beautiful song! :)


intro    F E C F    2x     ( F E  - play these notes to get in...)

                 
                   C F 
It must have been love, but it's over now...


         C F G 
Lay a whisper on my pillow, leave the winter on the ground
           C F Dm G 
I wake up lonely, there's air of silence in the bedroom and all around
          Am C F G 
Touch me now, I close my eyes and dream away...


                    C F 
It must have been love, but it's over now!
                    Dm Am G 
It must have been good, but I lost it somehow...
                    C F 
It must have been love but it's over now!
                     Dm Am G 
From the moment we touched, till the time had run out...


        C F G 
Make believing we're together, that I'm sheltered by your heart
            C F Dm G 
But in and outside I've turned to water, like a teardrop in your palm
            Am C F G 
And it's a hard winter's day, I dream away...


                    C F 
It must have been love, but it's over now
                    Dm Am G 
It was all that I wanted, now I'm living without
                       C Gm 
It must have been love, but it's over now
                C Bb 
It's where the water flows, it's where the wind blows


solo    Dm C Bb Dm F C Bb Dm C F Bb 
It must have been love, but it's over now 
                    Gm Dm C 
It must have been good, but I lost it somehow...
                    F Bb 
It must have been love but it's over now!
                    Gm Dm C 
From the moment we touched, till the time had run out...

 
                          F Bb 
Yeah, it must have been love, but it's over now 
                    Gm Dm C 
It was all that I wanted, now I'm living without
                    F Cm 
It must have been love, but it's over now
                F Eb 
It's where the water flows, it's where the wind blows


      F 
Whoa-hoa (it must have been love)
           Bb Gm Dm C 
(But it's over now) (but it's over now)  Nooooooow
                  F 
(Must have been love) (it must have been love)
           Bb Gm Dm C 
(But it's over now) (but it's over now)  Nooooooow

Some Kind Of Monster chords – Neon Trees

 I'm some kind of monster since I lost her

 C#m | | A | | E  | | B | |
There's a trap door hidden in my heart
I fell into a lover's hell deeper then I thought
 C#m |  A |  E |  B 
I came crawling back to that motel
 F#m | | A | |
I don't recognize who I am tonight


 E | E | G#m |  G# (m)|
I'm some kind of monster since I lost her
| C#m | F#m |
Now I'm raging wild and starting fires
| A | B |
I'll burn this whole thing down
 E | E | G#m |  G# (m)|
Some kind of monster how bad do I want her
| C#m | F#m |
I don't sleep at night I'm terrorized
| A | B |
There's blackness in my eyes
| F#m | |
I'm some kind of monster
| A | B |
I'm some kind of monster

 C#m | | A | | E  | | B | |
Everybody wanted her as a friend for fun
The time we took the nights we shook should have been enough
 C#m |  A |  E |  B 
Now her face is carved into my head
 F#m | | A | |
She's a damsel I'm in such distress


 E | E | G#m |  G# (m)|
I'm some kind of monster since I lost her
| C#m | F#m |
Now I'm raging wild and starting fires
| A | B |
I'll burn this whole thing down
 E | E | G#m |  G# (m)|
Some kind of monster how bad do I want her
| C#m | F#m |
I don't sleep at night I'm terrorized
| A | B |
There's blackness in my eyes
| F#m | |
I'm some kind of monster
| A | B |
I'm some kind of monster



| F#m | | A | |
I used to whisper in her ear
| E | | F#m | B |
Now I am screaming out in fear
| F#m | | A | |
Secrets keep me sinister but I've told her every one
| B | | A | B |
So why can't she understand the creature I've become


 C#m | | A | | E  | | B | |
There's a trap door hidden in my heart
I fell into a lover's hell deeper then I thought


 E | E | G#m |  G# (m)|
I'm some kind of monster since I lost her
| C#m | F#m |
Now I'm raging wild and starting fires
| A | B |
I'll burn this whole thing down
 E | E | G#m |  G# (m)|
Some kind of monster how bad do I want her
| C#m | F#m |
I don't sleep at night I'm terrorized
| A | B |
There's blackness in my eyes
 E | E | G#m |  G# (m)| C#m | F#m | A | B |
I'm some kind of monster
I'm some kind of monster

Paradise Lost chords – Hollywood Undead V2

 Alternate between using Dsus2 and Dm. First tab so hope you guys and gals enjoy.

Intro.
 Dsus2 Gm Bb A Dm Am Bb 
So watch my chest heave
           C 
as this last breath leaves me
        Dsus2 
I am trying to be

what you're dying to see
               Bb 
I feel like "Fuck man,
                     C 
can't take this, anymore,

this heart, break this."
          Dsus2 
This is life that's so thankless,

How could he just forsake us?
 Bb 
Breaks us he makes us
 C 
hate us he gave us
 Dsus2 
nothing but no trust

and I am so fucked up
     Bb 
So let this gun bond us
 C 
Lets hide by this lust
          Dsus2 
and once we are just dust

he'll know that he loved us
 A Bb 
LET IT ALL BURN
              C 
I will burn first
               Dsus2 Dm Dsus2 Dm 
God i've tried, am i lost in your eyes?
             Amaj7 C 
Just let me burn, it's what I deserve.
                 Dsus2 Dm Dsus2 Dm 
God i've lied, am i lost in your eyes?
 Bb 
So take me and make me
 C 
weakened and save me
      Dsus2 
this hate that you gave me
                  
keeps saying the same thing
     Bb 
to sing when you hurtin'
      C 
to sing when you cry
    Dsus2 
to sing when you livin'

to sing when you die
      Bb 
and here at the end
         C 
at the end of the hurt
         Dsus2 
all the pain ain't the same

when it's your turn to burn
            Bb 
We're the heart for the heartless,
       C 
the thoughts for the thoughtless,
      Dsus2 
the lies for the honest
            Dm 
We're the gods of the godless!
             Bb 
Let it all burn
              C 
I will burn first
            Dsus2 Dm Dsus2 Dm 
God I've tried, am I lost in your eyes?
              Bb 
Just let me burn
               C 
It's what I deserve
          Dsus2 Dm Dm Dsus2 Dm 
God I've lied, am I lost in your eyes?
                    G 
So cry 3 tears for me,
           F 
burning so good,
             A 
sing me this song
        Dsus2 Gm 
So cry 3 tears for me,
          F 
burning so good,
               
burning so good
 Dm 
I can not stand
       Gm 
who i am I'm this man
          F 
with this blood on my hands
          A 
in this blood I am damned
          Dm 
so watch my wings burn
          Gm 
as they burn in the fire
        F 
I'll scatter the ashes
     A 
no need for the choir
            Amaj7 
Let it all burn,
              C 
I will burn first
          Dsus2 Dm Dm Dsus2 Dm   
God i've tried, am i lost in your eyes?
              Bb 
Just let me burn
              C 
it's what I deserve,
          Dsus2 Dm Dsus2 Dm Dsus2 Dm 
God i've lied, am i lost in your eyes?
     Bb C 
This hate that you gave me keeps saying
              Dsus2 
Just let me burn,
              Dm<

Lost chords – Matt The Electrician

 ------------Lost------------
    Matt the Electrician

: George O.
Tuning: Standard with capo on 5

The chords might not be perfect, but it sounds pretty good. Please comment with any changes.

Here is the run from C to Am:
|-------------|
|-1-------1---|
|-0-------2---|
|-2-0-----2---|
|-3---3-0-----|
|-------------|

You can't really hear this part on the album, but on his live recordings, he plays 
a little riff off of the C chord that goes something like this:
|---------|--------------------|
|-1----1--|--1---1----------1--|
|-0----0--|--0--------------0--|
|-0-h2-2--|--0-h2----0-0-h2-2--|
|-3----3--|--3-----3--------3--|
|---------|--------------------|

YouTube it to play along. I think it adds a lot to the song!


CAPO: 5

Intro:  C C G 
I had a dream last night
                C 
That you were pregnant
     F C G 
But you can't get pregnant when you're dead
 F C 
Maybe I'm wrong


 C  (run)         Am  
Maybe I'm wrong
 F G 
If you come back
 F G 
Try and let me know
   F G C 
I just wanna say hi, and congratulations



 C G C 
One time I thought you were my cat
         F C  
But you took a crap on my pillow,
                  G 
and I changed my mind about that one
 F C 
Maybe I'm wrong
 C  (run)         Am  
Maybe I'm wrong

 F G 
If you chase birds,
 F G 
Scratch the screen door
      F G C 
Just try not to scratch me and my wife so much anymore


 Am F C 
Sometimes everything means nothing 
 Am F C 
Sometimes I can't believe myself
 Am F C  (run)
When we're driving in my dreams,
              Am 
It's in your car
              F G 
I don't know why, but we're lost
                    C 
It's just where we are


 C G C 
I heard a psychic medium on the radio
 F C  
Said he could hear spirits,
                 G 
I thought about calling him
 F C 
Maybe I'm wrong
 C  (run)         Am  
Maybe I'm wrong

 F G 
If you're standing there
 F G 
Whispering in his ear
 F G C 
Do me a favor and tell him why the fuck you jumped off a cliff


 Am F C 
Sometimes everything means nothing 
 Am F C 
Sometimes I can't believe myself
 Am F C  (run)
When we're driving in my dreams,

              Am 
It's in your car
              F G 
I don't know why, but we're lost
                    C 
It's just where we are...

In This We Dwell Tabs by Paradise Lost

 Paradise Lost
Tragic Idol
In This We Dwell
Tuning: A D G C F A D
=======================================================================
Notes
+ Video of Greg playing the intro shows that he changes positions, moving toward the nut 
for the final 2 or 3 notes.
  I think if you transpose the notes from the C string to the high A or D strings
  then you'll get more of the authentic way Greg plays it. I just feel more comfortable 
playing as I have tabbed the intro.
+ All Lead parts - I can't play lead so the notes are my best guesses.
+ No main solo
=======================================================================

Intro
D |------------------------------------|-----------------------------------------|
A |------------------------------------|-----------------------------------------|
F |-----7---8-----5---7--------7-------|------7---8-----5---7--------7-----------|
C |-5-5---5---5-5---5---5-8--5----7^8--|--5-5---5---5-5---5---5-8--5----7^8^7^5--|
G |------------------------------------|-----------------------------------------|
D |------------------------------------|-----------------------------------------|
A |------------------------------------|-----------------------------------------|

                                       Play x2
D |----------------------------------||--------------------------||
A |----------13-15-15v----15^13-13v--||-15-15^13^11-15-15^13^11--||
F |-12-14-15-------------------------||--------------------------||
C |----------------------------------||--------------------------||
G |----------------------------------||--------------------------||
D |----------------------------------||--------------------------||
A |----------------------------------||--------------------------||
                   F       C    C#      G#            G

D |-------------------------------------------------------|
A |-16-15-13-15-13-11-13-11----11-------------------------|
F |-------------------------14----14-12-12v-----14-15v----|
C |-------------------------------------------------------|
G |-------------------------------------------------------|
D |-------------------------------------------------------|
A |-------------------------------------------------------|
    C                     G              F       C   C#

D |-------------------------------------------|----------------------|
A |--------------------------------13-15-15v--|----------------------|
F |-----------------------12-14-15------------|----------------------|
C |--------------12-13-15---------------------|----------------------|
G |-----12-13-15------------------------------|----------------------|
D |--15---------------------------------------|--Depress whammy bar--|
A |-------------------------------------------|----------------------|
     G#                       G     C           G

Intro
Repeat x2 (F C C# G# G C G)
Approximate chord locations are written below the Intro Lead tab
D |----------------------------------|
A |----------------------------------|
F |----------------------------------|
C |--------7-------------------------|
G |--5-----5--------8-----7-------7--|
D |--3--------6-----6-----5--5----5--|
A |-----------4--------------3-------|


Verse lead-in
D |---------------------------------------|-------------------------------------|
A |---------------------------------------|-------------------------------------|
F |---------------------------------------|-------------------------------------|
C |------5--------------------------------|------5--------5---------------------|
G |------5-----5---6-5-5-5-5-6^5^3-6^5^3--|------5-----5--3----55(5)/8-77(7)/5--|
D |--3-3-3-3-3---3---3-3-3-3--------------|--3-3-3-3-3----3----33(3)/6-55(5)/3--|
A |---------------------------------------|-------------------------------------|


Verse 1 part 1
*Play main riff, then *1, back to main riff, then *2
D |----------------|---------------------|----------------|
A |

A Lost Forgotten Sad Spirit Tabs by Burzum

 Burzum - A Lost Forgotten Sad Spirit

tremolo picking
e|-------------------|
B|-------------------|
G|-------------------|
D|-4------7---6-7-6--|
A|-2------5---4-5-4--|
E|-------------------|

e|--------------|
B|--------------|
G|--------------|
D|-4-----5---7--|
A|-2-----3---5--|
E|--------------|

e|-----------------------|
B|-----------------------|
G|-----------------------|
D|-5----6----5----8--7---|
A|-3----4----3----6--5---|
E|-----------------------|

normal picking
e|---------------------------------||---------------------------------|
B|---------------------------------||---------------------------------|
G|---------------------------------||---------------------------------|
D|-9-9-9-9-5-5-------------------9-||-9-9-9-9-5-5-----------------9-9-|
A|-7-7-7-7-3-3-4-4-4-4-4-4-5-5-7-7-||-7-7-7-7-3-3-4-4-4-4-3-3-3-3-7-7-|
E|-------------2-2-2-2-2-2-3-3-5---||-------------2-2-2-2-1-1-1-1-----|

e|---------------------------------||---------------------------------|
B|---------------------------------||---------------------------------|
G|---------------------------------||---------------------------------|
D|-9-9-9-9-4-4-3-3-3-3-3-3-7-7-7-2-||-9-9-9-9-4-4-3-3-3-3-3-3-7-6-7-2-|
A|-7-7-7-7-2-2-1-1-1-1-1-1-5-5-5-0-||-7-7-7-7-2-2-1-1-1-1-1-1-5-4-5-0-|
E|---------------------------------||---------------------------------|

e|--------------------------------|
B|--------------------------------|
G|--------------------------------|
D|-5---9---5-------5---9---8---7--|
A|-3---7---3---6---3---7---6---5--|
E|-------------4------------------|

e|-------------------|        |-------------------|
B|-------------------|        |-------------------|
G|-------------------|        |-------------------|
D|-55-5-5-5----------|x3 then |-77-7-7-7-66-6-6-6-|
A|-33-3-3-3-66-6-6-6-|        |-55-5-5-5-44-4-4-4-|
E|----------44-4-4-4-|        |-------------------|

The Lost Are Found Tabs by Hillsong United V2

 Artist: Hillsong Live
 God Is Able
Song: The Lost Are Found

Key: B | Capo 4

Intro/Electric Guitar riff:

E-------11---14---11-------11---14---11--------11------11-------11-|
B---12----------------12------------------12-------14--------11----|
G-----11-----------------11------------------11--------------------|
D------------------------------------------------------------------|
A------------------------------------------------------------------|
E------------------------------------------------------------------|

E--------------------------------------------|
B------12----11-----9-----11s12--------------|
G--------------------------------------------|
D--------------------------------------------|
A--------------------------------------------|
E--------------------------------------------|


Chords:

Intro (x4): Em  C  G  Bm


Verse 1:
    Em
Everlasting
          C            G   Bm
While earthly ages fade
   Em
In mercy
     C                     G    Bm
Our God Your kingdom reigns


Pre-chorus:
Am                  Em
Lord over everything
            G  Bm
You are near
Am                 Em
All of the universe
            C
At Your feet


Instrumental (x2): Em  C  G  Bm 

Verse 2:
         Em  
In the Saviour
    C                 G    Bm
Injustice brought to right
           Em
For Your glory
          C                  G  Bm
That Your Name be lifted high


Pre-chorus (x2):
Am                  Em
Lord over everything
            G  Bm
You are near
Am                 Em
All of the universe
            C
At Your feet


Instrumental: G  Am  Em  C


Chorus:
    G
The lost are found
               Am
The blind will see
    Em
The lame will walk
              C
The dead will live
    G
And You our God
   Am            Em    C
Forever You will reign

Lost And Found chords – Kim Taylor

 ---------------------------------------------------------------------------
                                          Lost And Found - Kim Taylor
---------------------------------------------------------------------------

: Joseph Drysdale
Email: josephdrysdale360@hotmail.com

So this is my second tab. There are no existing tabs, so I decided
to do one. Hopefully its okay :p
     

     F C Dm Bb G 
e|-----|--0--|--1--|--6--|--3--|
B|--1--|--1--|--3--|--6--|--3--|
G|--2--|--0--|--2--|--7--|--0--|
D|--3--|--2--|--0--|--8--|--0--|
A|--3--|--3--|-----|--8--|--2--|
E|-----|-----|-----|--6--|--3--|

Intro:  F C Dm Bb F C F C Dm C Bb 
I've been lost and I've found
                     F 
That when you get lost
                     C 
You don't look down
        F C Dm 
But you look above
          C Bb 
Yeah you look ahead
                    F 
And you raise your hands
                   C 
To the sky instead
            Bb Dm 
To the sky instead
            Bb G 
To the sky instead

 F C Dm C Bb F C Dm 
When you run 
            C Bb 
When you try to hide
          F C 
Stop and shake the dust from inside
    F C Dm 
And hold yourself
        C Bb 
Like a little child
                 F C 
And swing you legs from the front porch swing for a little while
             Dm Bb 
For a little while
             Dm Bb 
For a little while
             Dm G 
For a little while

 F C Dm Bb F C F C Dm 
You don't know
            C Bb 
Who will want to talk
                      F           
Or who you'll meet between now and then 
                           C 
Or where your feet will walk
         F C Dm 
But you look above
          C Bb 
Yeah you look ahead
                    F 
And you raise your hands
            C 
to the sky instead
            Dm Bb 
To the sky instead
            Dm Bb 
To the sky instead
            Dm G 
To the sky instead

 F C Dm C Bb 
I've been lost and I've found
           F C Dm 
That when you get lost
           C Bb 
You don't look down
        F C Dm 
But you look above
                G 
Yeah you look ahead
                    F 
And you raise your hands
               C 
To the sky instead
            C F Dm 
To the sky instead

END

Lost And Found chords – Lianne La Havas

 I put capo on 4th fret.

 Am C Em 
Come upstairs and ill show you where all my

                        F 
Where my demons hide from you

 C C                    
Just look at who I have become I am so ashamed

              Em F 
You were the one that made me feel the way I do

 Am C 
You broke me and taught me

    Em F 
to truly hate myself

 Am C Em 
unfold me and teach me how to be

              F 
like somebody else

and I felt strong enough
I was discovered by the love
I had been waiting for so long
You told me none of that was real
I can not hide how low I feel
To know that you were never wrong


You broke me and taught me

to truly hate myself
Unfold me and teach me
How to be like somebody else

Oh oh oh oh oh
Oh eey yeaah
You are lost and found
Falling out my babe
Broken down
Broken down

You broke me and taught me
to truly hate myself
Unfold me and teach me
How to be like somebody else
You broke me and taught me to
Truly hate myself
Unfold me and teach me
How to be like somebody else

Lost In Time chords – Howard Moss

 Lost In Time - Howard Moss (KEEP YOUR ENEMIES CLOSE) 2014

 Am ,  F ,  D ,  E7  x4
( Am ) Drifting onwards, ( F ) sinking downwards I ( D ) know
We ( E7 ) all get lost in time 
( Am ) Feelings fading, ( F ) mind is so ( D ) strong
Little ( E7 ) do they know

( Am ) Looking frail, ( F ) the mind hasn't changed 
They ( E7 ) look at me a way
( Am ) That I'm nothing, ( F ) but one in a line
We ( E7 ) all end up the same

 F ,  G ,  Am ,  E7  x2
( F ) It's just a ( G ) part of life for ( Am ) sure 
Now there's ( E7 ) nothing we can do
( F ) It's all been ( G ) written in the ( Am ) stars 
Right ( E7 ) from the start of time

( Am ) I've been like this ( F ) for a nearly a ( D ) year
In ( E7 ) a dream like state
( Am ) Feeling distant, ( F ) and fading to ( D ) fast
Got ( E7 ) going anywhere

( Am ) Space goes onwards, ( F ) and never will ( D ) end
Our ( E7 ) minds can't comprehend
( Am ) What's the meaning, ( F ) we never will ( D ) know
We're ( E7 ) better off that way

( F ) Yet they'll ( G ) try to work it ( Am ) out 
Well that's ( E7 ) just a waste of time
( F ) That's the ( G ) one thing we don't ( Am ) have 
That's ( E7 )what we agree upon

Solo or middle 8 in C, G, Am, F
 C ,  G ,  Am ,  F ,  E7 

( Am ) Sinking quickly, ( F ) and drowning so ( D ) fast
I ( E7 ) cannot feel to breath
( Am ) Visions blurring ( F ) and badly in ( D ) need
I ( E7 ) want to call your name

( F ) The clock is ( G ) ticking now so ( Am ) fast, 
Speeding ( E7 ) up as days go by
( F ) Night is ( G ) tricking with my ( Am ) head, 
There's ( E7 ) no need to question why

( F ) We're only ( G ) here for a short ( Am ) while 
And now ( E7 ) once your gone your gone
( F ) You can ( G ) never turn back ( Am ) time 
So just ( E7 ) dance until the dawn

OUTRO  AM ,  F ,  G ,  E7

Lost In London chords – The Rifles

 The Rifles - Lost In London
 Andrew Titov (andrewthomas11a)

Chords used:
 Am ,  Bb ,  B ,  C ,  D ,  G ,  G# 


Intro:
 D ,  G ,  C ,  Am   -  4x

Verse 1:
 D G C Am 
Can't take no more of this panic and stress..
 D ,  G  |  C ,  Am   -  3x

 C Am 
He tried his hand at a job in a factory..
 C  |  Am   -  3x

Chorus:
 B Bb Am 
Getting lost in London
 B ,  Bb  |  Am   -  3x

 D ,  G  |  C ,  Am   -  2x

Verse 2:
 D ,  G  |  C ,  Am   -  4x
 C  |  Am   -  4x

Chorus:
 B ,  Bb  |  Am   -  4x

 D ,  G  |  C ,  Am   -  2x

Break:
 D ,  G  |  C ,  Am   -  2x
 Bb ,  C  |  Am                      
          We got a bit of a problem...
 Bb ,  C  |  Am Bb ,  C  |  Am Bb ,  C  |  G ,  G#  |  Am  |  Am 

Chorus:
 B ,  Bb  |  Am   -  4x