Tag: Love


The Miracle Of Love chords – Glen Campbell

 The Miracle oF Love
Glen Campbell
Intro   C# Bbm F# G# G#7
Verse 1
           C#
He made a man
           Bbm
He put me here on Earth
           F#
He made a woman
                G# G#7
Yes He put you here for me
             C#
And then He gave us love
        C#7 F
A very special love
             F#
A garden of Eden
             F
For you and me
Bridge
           Bbm
Then the lightning flashed
         C#
Yes the thunder clashed
         F#
And the angel of love
                 G# G#7
Came to you and me
Verse 2
            C#
He said do right
                       Bbm
Thats the only way to get along
                F#
Don't fuss and fight
            G# G#7
Thats when things go wrong
              C#
So with each passing day
                C#7
True love will share each day
        F#
Yes He unlocked the door
                  F
To the wonder of life
Outro
            Bbm
And so you give to me
             F C# Bbm
Oh and I'll give to you
             F# Bbm
The miracle, umm yes the miracle
     G# C#
The Miracle of Love
flyinglibra51
God Bless Glen Travis Campbell

Let The Love Back In chords – The Orange Lights

 Gm Dm
Sometimes, it just don't make no sense at all
 F C
I'm still trying to find a reason for it all
   Gm Dm
My life I thought it would be something beautiful
      F C Dm
But now it feels like there's nothing there at all anymore
             C A#
Give me the sunshine instead of the rain
          C
All that I want is to be happy again
 Dm C A#
Give me the sunshine instead of the rain
              C
Give me the sunshine instead of the rain
            Gm Dm
We got to let the love back in again
 F C
Let the love back in again
    Gm Dm
Oh why does it have to be so hard
 F C
How did you and me get where we are
 Gm Dm
How did you become invisible
 F C Dm
Your mind is now just nothing there at all anymore
 Dm C A#
Give us the sunshine instead of the rain
          C
All that we want is to be happy again
 Dm C A#
Give us the sunshine instead of the rain
            Gm Dm
We got to let the love back in again

Words Of Love Tabs – The Mamas & The Papas Vsion 1

 WORDS OF LOVE
As recorded by The Mamas & The Papas
(From the 1966 Album THE MAMAS & THE PAPAS)
Words and Music by John Phillips
 Slowhand
Gtr I (E A D G B E) - 'John Phillips - Electric Guitar'
 Intro
 Shuffle Q=112(8=s8)
                        E          Abm/Eb       Dbm            Eb   Ab
 4/4
  Gtr I (Clean El. Gtr.)
  W          W           E  E  E E  E  E  E E    E  E  E  E  E  E E E
|----------|----------|-12-12-12-x-11-11-11-x-|--9--9--9--9--9-11---4--|
|----------|----------|-12-12-12-x-12-12-12-x-|--9--9--9--9--9-11---4--|
|----------|----------|-13-13-13-x-13-13-13-x-|--9--9--9--9--9-12---5--|
|----------|----------|-14-14-14-x-13-13-13-x-|-11-11-11-11-11-13---6--|
|----------|----------|-----------------------|------------------------|
|----------|----------|-----------------------|------------------------|
                                        1st Verse
                      Eb7                Ab7               Gb7
  +E  E E E E E E E   E E E E E E E E    E E E E E E E E   E E E E E E E E
|-(4)-4-4-x-4-4-4-x-|-----------------||-4-4-4-x-4-4-4-x-|-2-2-2-x-2-2-2-x--|
|-(4)-4-4-x-4-4-4-x-|-4-4-4-x-4-4-4-x-||-4-4-4-x-4-4-4-x-|-2-2-2-x-2-2-2-x--|
|-(5)-5-5-x-5-5-5-x-|-6-6-6-x-6-6-6-x-||-5-5-5-x-5-5-5-x-|-3-3-3-x-3-3-3-x--|
|-(6)-6-6-x-6-6-6-x-|-5-5-5-x-5-5-5-x-||-4-4-4-x-4-4-4-x-|-2-2-2-x-2-2-2-x--|
|-------------------|-6-6-6-x-6-6-6-x-||-6-6-6-x-6-6-6-x-|-4-4-4-x-4-4-4-x--|
|-------------------|-----------------||-4-4-4-x-4-4-4-x-|-2-2-2-x-2-2-2-x--|
  Cb7               Bb7     Eb7       Ab7               Gb7
  E E E E E E E E   E E E E E E E E   E E E E E E E E   E E E E E E E E
|-7-7-7-x-7-7-7-x-|-6-6-6-x---------|-4-4-4-x-4-4-4-x-|-2-2-2-x-2-2-2-x--|
|-7-7-7-x-7-7-7-x-|-6-6-6-x-4-4-4-x-|-4-4-4-x-4-4-4-x-|-2-2-2-x-2-2-2-x--|
|-8-8-8-x-8-8-8-x-|-7-7-7-x-6-6-6-x-|-5-5-5-x-5-5-5-x-|-3-3-3-x-3-3-3-x--|
|-7-7-7-x-7-7-7-x-|-6-6-6-x-5-5-5-x-|-4-4-4-x-4-4-4-x-|-2-2-2-x-2-2-2-x--|
|-9-9-9-x-9-9-9-x-|-8-8-8-x-6-6-6-x-|-6-6-6-x-6-6-6-x-|-4-4-4-x-4-4-4-x--|
|-7-7-7-x-7-7-7-x-|-6-6-6-x---------|-4-4-4-x-4-4-4-x-|-2-2-2-x-2-2-2-x--|
  Cb7               Bb7               Ab7               Gb7
  E E E E E E E E   E E E E E E E E   E E E E E E E E   E E E E E E E E
|-7-7-7-x-7-7-7-x-|-6-6-6-x-6-6-6-x-|-4-4-4-x-4-4-4-x-|-2-2-2-x-2-2-2-x--|
|-7-7-7-x-7-7-7-x-|-6-6-6-x-6-6-6-x-|-4-4-4-x-4-4-4-x-|-2-2-2-x-2-2-2-x--|
|-8-8-8-x-8-8-8-x-|-7-7-7-x-7-7-7-x-|-5-5-5-x-5-5-5-x-|-3-3-3-x-3-3-3-x--|
|-7-7-7-x-7-7-7-x-|-6-6-6-x-6-6-6-x-|-4-4-4-x-4-4-4-x-|-2-2-2-x-2-2-2-x--|
|-9-9-9-x-9-9-9-x-|-8-8-8-x-8-8-8-x-|-6-6-6-x-6-6-6-x-|-4-4-4-x-4-4-4-x--|
|-7-7-7-x-7-7-7-x-|-6-6-6-x-6-6-6-x-|-4-4-4-x-4-4-4-x-|-2-2-2-x-2-2-2-x--|
  Cb7               Bb7     A7       Ab7              Gb7
  E E E E E E E E   E E E E E E Q    E E E E E E Q    E E E E E E Q
|-7-7-7-x-7-7-7-x-|-6-6-6-6-5------|-4-4-4-4-4------|-2-2-2-2-2-------|
|-7-7-7-x-7-7-7-x-|-6-6-6-6-5------|-4-4-4-4-4------|-2-2-2-2-2-------|
|-8-8-8-x-8-8-8-x-|-7-7-7-7-6------|-5-5-5-5-5------|-3-3-3-3-3-------|
|-7-7-7-x-7-7-7-x-|-6-6-6-6-5------|-4-4-4-4-4------|-2-2-2-2-2-------|
|-9-9-9-x-9-9-9-x-|-8-8-8-8-7------|-6-6-6-6-6------|-4-4-4-4-4-------|
|-7-7-7-x-7-7-7-x-|-6-6-6-6-5------|-4-4-4-4-4------|-2-2-2-2-2-------|
                                    Bridge
                                  Straight Q=112
  E7               Eb7               Fm              Bbm
  E E E E E E Q    E E E E E E Q     Q  E E E Q  E   Q  E E E Q  E
|----------------|----------------||-1--1-1-1-1--1-|-1--1-1-1-1--1--|
|-5-5-5-5-5------|-4-4-4-4-4------||-1--1-1-1-1--1-|-2--2-2-2-2--2--|
|-7-7-7-7-7------|-6-6-6-6-6------||-1--1-1-1-1--1-|-3--3-3-3-3--3--|
|-6-6-6-6-6------|-5-5-5-5-5------||-3--3-3-3-3--3-|-3--3-3-3-3--3--|
|-7-7-7-7-7------|-6-6-6-6-6------||-3--3-3-3-3--3-|-1--1-1-1-1--1--|
|----------------|----------------||-1--1-1-1-1--1-|----------------|
                                Shuffle Q=112(8=s8)
  Gb              Eb7             Ab7             Gb7
  Q  E E

Love With Your Heart chords – The Everly Brothers

 Love With Your Heart:The Everly Brothers.
Album - Susie Q - on WARNER Records in
1968.
INTRO:  E
#1.
 E
I can't believe it's true, to love me you're
the fool.
                      A E
If you really think about it, you don't know me.
 E A E A E
I'll never understand, how one touch of your hand,
     A E D E A E
can make me feel the truth in what you've told me.
BRIDGE:
   B E
I can't belong to you, it's too soon to be true.
         A E D
To find real love I've searched for years, but
 E
hold me.
INTERLUDE:  E
CHORUS:
 A B E
Love with your heart and you'll be happy.
 Em D A
Love with your mind and you'll get by.
INTERLUDE:  E
#2.
 E
I need to be with you, you say you want me, too.
But in my heart I can't believe you love me.
 E B E
I'll do it anyway, I'll give my love and stay.
            A E A
And think about the consequence tomorrow.
#3.
    Bm B E
It happened once before, I found love but I gave
more.
 E D E
One day I opened up my eyes..she owned me.
CHORUS:
 A B E
Love with your heart and you'll be happy.
 Em D A
Love with your mind and you'll get by.
OUTRO:
 E
Loooooooooooooove, looooooooooooove..(Fade.)
A sixties smash from Kraziekhat.

Tainted Love Tabs – Soft Cell Vsion 3

 Intro: e|-----------------------------------------------|
       B|-8-8~------------------------------------------|
       G|-----------------------8-8--5~---------8-8--5~-|
       D|------x-5-5~-x-5-5-8-8-8-8-85~-5-5-8-8-8-8-85~-|
       A|------x-5-5~-x-5-5-8-8-6-6-83~-5-5-8-8-6-6-83~-|
       E|------x-3-3~-x-3-3-6-6-----6---3-3-6-6-----6---|
Verse: e|-----------------------------------------------------------------|
       B|-----------------------------------------------------------------|
       G|-----------------------------------------------------------------| X2
       D|-----------------5-5-------------5-5-----------------------------|
       A|---------6-6---3-5-5-----6-6---3-5-5-----6-6---3-----------------|
       E|-3-3-6-6-----6---3-3-6-6-----6---3-3-6-6-----6---3-3-3-3-6-6-6-6-|
          Sometimes I feel I've got to run away. I got to get away from the pain you drive into the heart of me.
          The love we share seems to go nowhere. And I've lost my light. I toss and turn, I can't sleep at night
Pre-Chorus: e|---------------------------------------------------------------------------------|
            B|---------------------------------------------------------------------------------|
            G|---------------------------------------------------------------------------------|
            D|---------------------------------------------------------------------------------|
            A|---------------------------------6-6-6-6-6-6-6-6-3-3-3-3-3-3-3-3-3-3-3-3-3-3-3-3-|
            E|-3-3-3-3-3-3-3-3-6-6-6-6-6-6-6-6-------------------------------------------------|
               Once I ran to you (I ran). Now I run from you.
               This tainted love you've given, I give you all a boy could give you.
               Take my tears and that's not nearly ALL!
Chorus: e|-----------------|
        B|-----------------|
        G|---------8-8--5~-| X2
        D|-5-5-8-8-8-8-85~-|
        A|-5-5-8-8-6-6-83~-|
        E|-3-3-6-6-----6---|
           Tainted love (oh)
           Tainted love
Verse: e|-----------------------------------------------------------------|
       B|-----------------------------------------------------------------|
       G|-----------------------------------------------------------------| X2
       D|-----------------5-5-------------5-5-----------------------------|
       A|---------6-6---3-5-5-----6-6---3-5-5-----6-6---3-----------------|
       E|-3-3-6-6-----6---3-3-6-6-----6---3-3-6-6-----6---3-3-3-3-6-6-6-6-|
          Now I know I've got to run away. I got to get away, you don't really want any more from me.
          To make things right you need someone to hold you tight.
          And you think love is to pray. But I'm sorry, I don't pray that way.
Pre-Chorus: e|---------------------------------------------------------------------------------|
            B|---------------------------------------------------------------------------------|
            G|---------------------------------------------------------------------------------|
            D|---------------------------------------------------------------------------------|
            A|---------------------------------6-6-6-6-6-6-6-6-3-3-3-3-3-3-3-3-3-3-3-3-3-3-3-3-|
            E|-3-3-3-3-3-3-3-3-6-6-6-6-6-6-6-6-------------------------------------------------|
               Once I ran to you (I ran). Now I run from you.
               This tainted love you've given, I give you all a boy could give you.
               Take my tears and that's not nearly ALL!
Chorus: e|-----------------|
        B|-----------------|
        G|---------8-8--5~-| X3
        D|-5-5-8-8-8-8-85~-|
        A|-5-5-8-8-6-6-83~-|
        E|-3-3-6-6-----6---|
           Tainted love (oh)
           Tainted love
           Don't touch me, please, for I cannot stand the way you tease.
        e|---------------------------------|
        B|---------------------------------|
        G|----------------------------

All I Wanna Do Is Make Love To You chords – Heart Vsion 2

 Intro:  G C G C G Bm
1. It was a rainy night when he came into sight,
 C G
standing by the road, no umbrella, no coat.
                                 Bm
So I pulled up along side and I offered him a ride,
    C D
he accepted with a smile, so we drove for a while.
          G Em
I didn't ask him his name, this lonely boy in the rain.
      C
Fate tell me it's right, is this love at first sight.
         D
Please, don't make it wrong, just stay for the night.
Refr.:
 G C
All I wanna do is make love to you. Say you will you want me, too.
 G C
All I wanna do is make love to you. I've got lovin' arms to hold on to.
          G Bm
2. So we found this hotel, it was a place I knew well.
    C G
We made magic that night. Oh, he did everything right.
                                         Bm
He brought the woman out of me, so many times, easily.
            C D
And in the morning when he woke, all I left him was a note.
            G
I told him I am the flower you are the seed,
    Em
we walked in the garden, we planted a tree.
       C
Don't try to find me, please don't you dare,
      D
just live in my memory, you'll always be there.
Refr. 2:
 G C
All I wanna do is make love to you, one night of love was all we knew.
 G C
All I wanna do is make love to you, I've got lovin' arms to hold on to
 D Em
Oh, oooh, we made love, love like strangers.
 C G
All night long we made love.
    G Bm
3. Then it happened one day, we came round the same way.
 C G
You can imagine his surprise when he saw his own eyes.
        Bm
I said please, please understand, I'm in love with another man.
 C D
And what he couldn't give me, was the one little thing that you can.
Refr. 3:
 G C
All I wanna do is make love to you, one night of love was all we knew.
 G
All I want to do is make love to you.
 C
Come on, say you will, you want me, too.
Refr. 3:
 G C
All I wanna do is make love to you, one night of love was all we knew.
 G
All I want to do is make love to you.
 C
Come on, say you will, you want me, too.

Peace And Love On Planet Earth chords – Rebecca Sugar

 [Steven]
 Dm7 G
   Life and death and love and birth
     Cmaj7 Am7
And peace and war on the planet Earth
 Dm7 G
   Is there anything that's worth
           Cmaj7 Am7
More than peace and love on the planet Earth
    Dm7 G
Whoahh come on and sing it with me [Sing?]
 Cmaj7 Am7
     The words relate to the key [Key?]
 Dm7 G
   If it's a pattern, if it's a pattern
 Cmaj7 Am7
     Then just repeat after me
 Dm7 G
   Life and death and love and birth
[Peridot]
 Cmaj7 Am7
     Life and death and love and birth
[Steven]
            Dm7 G
Then using mi-fa-mi-mi-fa-mi-ti-la
[Both]
      Cmaj7 Am7
And peace and war on the planet Earth
[Steven]
 Dm7
   Yes yes! That's it!
[Peridot]
 G
 That's so easy
[Steven]
 Cmaj7 Am7
     Yeah but that's what's fun about it
                Dm7 G
You should write something, you should write a song!
[Peridot]
About what?
[Steven]
       Cmaj7 Am7
Whatever you're thinking
[Peridot]
                       Dm7 G
I guess we're already here
                 Cmaj7 Am7
I guess we already know
                           E7
We've all got something to fear
                        Am7
We've all got nowhere to go
                      Dm7
I think you're all insane!
              Cmaj7 Am7
But I guess I am too
               Dm7
Anybody would be
              G Cmaj7
If they were stuck on Earth with you!
[Steven]
       Cadd9
Hehehehe yes!
 Dm7 G
   Life and death and love and birth
[Amethyst]
 Cmaj7 Am7
     Life and death and love and birth
[Pearl]
 Dm7 G
   Life and death and love and birth and
  Cmaj7 Am7
peace and war on the planet Earth
[Garnet]
 Dm7 G
   Is there anything that's worth more
[Steven]
 Cmaj7 Am7
     Is there anything that's worth more
[Peridot]
 Dm7 G
   Is there anything that's worth more
      Cmaj7 Am7
Than peace and love on the planet Earth
------------------------------------------
Props to danon24 for finding the chords on guitar.
Check out the awesome tutorial video here! https://www.youtube.com/watch?v=Us5uKcgZOQQ

Vision Of Love chords – Mariah Carey Vsion 2

 C
Treated me kind
 Bb
Sweet destiny
 F
Carried me through desperation
 E
To the one that was waiting for me
 C
It took so long
 Bb
Still I believed
 F
Somehow the one that I needed
 E
Would find me eventually
 Eb D
I had a vision of love
 F G
And it was all that you've given to me
 C Fm C C
Prayed through the nights
 Bb
Felt so alone
 F
Suffered through alienation
 E
Carried the weight on my own
 C
Had to be strong
 Bb
So I believed
 F
And now I know I've succeeded
                E
In finding the place I conceived
 Eb D
I had a vision of love
 F G
And it was all that you've given to me
 Eb D
I had a vision of love
 F G
And it was all that you've given me
 Bb C
I've realized a dream
 Bb
And I visualized
 C
The love that came to be
 Bb
Feel so alive
 C
I'm so thankful that I've received
 Dm F
The answer that heaven has sent dow
      G
n to me
 C
You treated me kind
 Bb
Sweet destiny
 F
And I'll be eternally grateful
 E
Holding you so close to me
 C
Prayed through the nights
 Bb
So faithfully
 F
Knowing the one that I needed
 E
Would find me eventually
 Eb D
I had a vision of love
 F G
And it was all that you've given to me
 Eb D
I had a vision of love
 F G
And it was all that you turned out to
 C Fm C
be

Someone To Give My Love To chords – Glen Campbell

 Someone to give my love to
Glen Campbell
Intro   E D
Verse 1
 E D A
Well, I could search from now to the end of the time
                    E
Never find another you
                                 D A
Well I'm so glad because that I know you're mine
                    E
Someone to give my love to
Verse 2
                                       D A
Well, I believe, my love, that you're one of the kind
                              E
For there's no one else like you
                                 D A
You're the light of my life, so let it shine
                    E
Someone to give my love to
Chorus 1
 A D C#
Well, I find happiness is lovin' you    and I'll do my best
              F# F#7 B D E
To make your dreams come true
Verse 3
                              D A
Now I will follow you to the end of the earth
                           E
For my place will be with you
                            D A
Well, I have taken you for better or worse
                    E A
Someone to give my love to
Chorus 2
                            D C#
Well, I find happiness is lovin' you    and I'll do my best
              F# F#7 B E
To make your dreams come true
Verse 4
                           D A
Days of man and wife time are precious few
                                E
And I will spend them all with you
                          D A
Then beyond forever I'll wait for you
                    E
Someone to give my love to
            D A E
MMMMMMMM  mmmmmmmmmmmm     MMMMMMMM   mmmmm
Outro
                                       D E A
Well, you're the light of my life, so let it shine
                            E
Shine on me, my whole life through
                                       D A
Well, you're the light of my life, so let it shine
                     E
I need someone like you (Fade Quickly)
flyinglibra51
God Bless Glen Travis Campbell

The Lonely Side Of Love chords – Patty Loveless

 Patty Loveless - The Lonely Side Of Love
INTRO:  F C G C F C
I can't make these heartaches go away, he's always on my mind
                                  D G
The memories of the love we had, don't fade away with time
              C F C
What is this crazy road I'm on, I don't understand
      F C F
What makes two people fall in love
                               C F
What goods a promise when the love is gone
                          C
Where do you go when you find yourself
        G C
On the lonely side of love
                                   F C
The rain is falling to the ground, the neon rainbows glow
                           D G
I see us standing far away where peaceful waters flow
          C F C
It's the only dream that I have left that I can hold on to
      F C F
Now, am I right or am I wrong
                           C F
For holding on to what is gone
                      C
And what's left to believe in
        G C
On the lonely side of love
INSTRUMENTAL:  F C F C F C G C F C
I can't make these heartaches go away, he's always on my mind
                                  D G
The memories of the love we had, don't fade away with time
              C F C
What is this crazy road I'm on, I don't understand
      F C F
What makes two people fall in love
                               C F
What goods a promise when the love is gone
                          C
Where do you go when you find yourself
        G C
On the lonely side of love
      F C F
Now, am I right or am I wrong
               C F
Holding on to what is gone
                      C
And what's left to believe in
        G C
On the lonely side of love
OUTRO:  F C G C
Page 1 of 2,01212345...102030...Last »