Tag: mac

Come Back To Earth piano chords by Mac Miller

[Chorus]
     Cmaj7                 C7                     Fmaj7  Em7
My regrets look just like texts I shouldn't send
             A7                           Bb7
And I got neighbors, they're more like strangers
           Dm7  E7
We could be friends
               Am7  Bb       Dm
I just need a way out of my head
E                       Am7   C7
I'll do anything for a way out
        F  E
Of my head


[Verse]
C                             Dm
In my own way, this feel like living
Cmaj7          Dm7      Gm7 C7
Some alternate reality
Fmaj7                           E7     Am
And I was drowning, but now I'm swimming
Eb                          G
Through stressful waters to relief
        C             F
Oh, the things I'd do
E                          Am   C7
To spend a little time in hell
           F
And what I won't tell you
E                        Am
I prolly never even tell myself
F                       C
And don't you know that sunshine don't feel right
         Dm
When you inside all day
  C                            Dm
I wish it was nice out, but it looked like rain
Am                               F
Grey skies and I'm drifting, not living forever
     Am         C           F
They told me it only gets better


[Chorus]
     C                                       F   E7
My regrets look just like texts I shouldn't send
             Am7                          C7
And I got neighbors, they're more like strangers
           F    E7
We could be friends
              Am    Bb       F
I just need a way out of my head
           E             Am   C7
I'll do anything for a way out
       F  E7
Of my head

Cmaj7    Dm    Cmaj7

Come Back To Earth chords by Mac Miller

[Chorus]
     Cmaj7                 C7                     Fmaj7  Em7
My regrets look just like texts I shouldn't send
             A7                           Bb7
And I got neighbors, they're more like strangers
           Dm7  E7
We could be friends
               Am7  Bb       Dm
I just need a way out of my head
E                       Am7   C7
I'll do anything for a way out
        F  E
Of my head


[Verse]
C                             Dm
In my own way, this feel like living
Cmaj7          Dm7      Gm7 C7
Some alternate reality
Fmaj7                           E7     Am
And I was drowning, but now I'm swimming
Eb                          G
Through stressful waters to relief
        C             F
Oh, the things I'd do
E                          Am   C7
To spend a little time in hell
           F
And what I won't tell you
E                        Am
I prolly never even tell myself
F                       C
And don't you know that sunshine don't feel right
         Dm
When you inside all day
  C                            Dm
I wish it was nice out, but it looked like rain
Am                               F
Grey skies and I'm drifting, not living forever
     Am         C           F
They told me it only gets better


[Chorus]
     C                                       F   E7
My regrets look just like texts I shouldn't send
             Am7                          C7
And I got neighbors, they're more like strangers
           F    E7
We could be friends
              Am    Bb       F
I just need a way out of my head
           E             Am   C7
I'll do anything for a way out
       F  E7
Of my head

Cmaj7    Dm    Cmaj7

One Another Chords by Mac DeMarco

[Intro] 
F     Bb  C  (x3)
(Mac throws in F7 and F6 also for the four beats of the F chord)

[Verse 1]
    F        Bb          C             F
Hey kid,     everybody's prone to some mistakes
  Bb                    C                     F
If you'd always kept it straight, you'd never learn
Bb                    C                 F     Bb  C
You'd run the risk of all the risks you take
     F              Bb               C              F
Don't feel     like all the time you put in went to waste
Bb                     C                 F
The way your heart was beating all those days
Bb              C             F     Bb  C
And suddenly it beats another pace

[Chorus]
     Gm           C7    Bmaj7       Ebmaj7
It's not like you never tried to forget her
    Gm             C7         Eb7     F
But these days are better without one another

[Instrumental] (x2)
F    Bb  C 

[Verse 2]
    F     Bb              C               F
Hey man,    so now you've got it off your chest
Bb                C                F
   Your heart can finally get some rest
Bb               C                  F    Bb  C
 Same heart that started this whole mess 
      F      Bb         C                   F
And although   a broken heart needs time to mend
Bb             C           F
  Yours wasn't ever really broken, was it?
Bb           C               F      Bb  C
   In losing love you gain a friend

[Chorus]
     Gm           C7    Bmaj7       Ebmaj7
It's not like you never tried to forget her
    Gm             C7         Eb7     F
But these days are better without one another

[Outro]
F     Bb     C        F
          Without one another
Bb     C        F
    Without one another
Bb     C        F
    Without one another
Bb     C     F

Watching Him Fade Away Chords by Mac DeMarco

Tuning 1st fret
Capo D A D G B E
Drop D tuning: DADGBE
Song is in key of Eflat, so capo on first fret to be in same key.
(tabs for chords written below written relative to no capo)

D : 0X423X
G/D (Gsus2/D): 0X523X
Em : 2XX030
B7 : X2424X
Bm7: X2423X
A7 : X02020
Gmaj7: 5X777X
F#m7: 4X765X

Each chord is played for 2 beats

[Intro]
D     G/D x2

[Verse 1]
D                  G/D                D     G/D
   Haven't got the guts to call him up
D                 G/D            D           G/D
   Walk around as if you never cared in the first place
D                   G/D                      D    G/D
   But if you never call you'll end up stuck
D                  G/D                  D              G/D
   Without another chance to tell him off right to his face

[Chorus]
Em           B7        Bm7          A7
   And even though you barely know each other
   D     G/D   Gmaj7         F#m7       D    G/D  Gmaj7         F#m7
It still hurts watching him fade away,            watching him fade away
D    G/D   Gmaj7         F#m7    D    G/D    Gmaj7         F#m7     D    G/D  D    G/D
           Watching him fade away,           watching him fade away.

[Verse 2]
D                   G/D                  D     G/D
   I know you never meant to put him down
D                  G/D     D         G/D
   And even if you did,   he sure deserved it
D                        G/D                D     G/D
   The thought of him no longer being around
D                        G/D       D        G/D
   Well sure it would be sad but not really different

[Chorus]
Em           B7        Bm7          A7
   And even though you barely know each other
   D     G/D   Gmaj7         F#m7      D    G/D  Gmaj7         F#m7
It still hurts watching him fade away,           watching him fade away
D    G/D   Gmaj7         F#m7     D    G/D   Gmaj7         F#m7      D   
           Watching him fade away,           watching him fade away.

For The First Time Chords by Mac DeMarco

Artist:Mac DeMarco
Song  :For the First Time 

Chords arranged for guitar from synths. The suggested chord shapes below sound good on guitar. 
Also the Eb6 can also be played as a Ebmaj7. 

e|---------|---------|----3----|---(6)---|----3----|----3----|
B|----9----|---(4)---|----5----|----6----|----3----|----5----|
G|----8----|----5----|----3----|----8----|----3----|----3----|
D|----10---|----5----|----5----|----8----|----3----|----5----|
A|----8----|----6----|----x----|----x----|----5----|----3----|
E|---------|---------|----3----|----6----|----3----|---------|
     Fm7       Eb6       C7/G     Bbsus4      Gm7       C7        


[Verse 1]
Fm7             
While she's been away
                            Eb6   
Living day-to-day has been tough
Fm7
I found her at my side
                            Eb6   
Simply being alive's been rough
             Fm7
You know she won't be gone forever
                                Eb6    
There are many times I find it feels that way
             Fm7
And I'm not trying to forget her
                                  C7/G
Just understand how I'll be feeling on that day

[Chorus]
                      Fm7           Bbsus4     Gm7   C7
It's just like seeing her for the first time again
                      Fm7           Bbsus4     Eb6
It's just like seeing her for the first time again

[Verse 2]
Fm7
The time she's not around
                               Eb6   
Somewhere out-of-town has been hard
     Fm7                                                  Eb6   
But somehow this old heart found time to work it out this far
       Fm7                        
No, I know she's coming home soon
                                  Eb6   
There are times I find it hard to feel that way
          Fm7                       
It's not inside me to forget her
                                  C7/G
Just understand how I'll be feeling on that day

[Chorus]
                      Fm7           Bbsus4     Gm7   C7
It's just like seeing her for the first time again
                      Fm7           Bbsus4     Eb6   C7
It's just like seeing her for the first time again
                      Fm7           Bbsus4     Gm7   C7
It's just like seeing her for the first time again
                      Fm7           Bbsus4     Eb6
It's just like seeing her for the first time again


Tabbed by Trystan H

Baby Dont Get Hooked On Me chords – Mac Davis Vsion 2

 C F 
Girl you're getting that look in your eyes

                         C 
And it's starting to worry me

                      F 
I ain't ready for no family ties

                   C 
Nobody's gonna hurry me


 Em 
Just keep it friendly girl cause

   Am 
I don't wanna leave

 Dm 
Don't start clinging to me girl 

 G7 
Cause I can't breathe


 C Dm 
Baby baby don't get hooked on me

 G7 C 
Baby baby don't get hooked on me

                                   Dm 
Cause I'll just use you then I'll set you free

 G7 F 
Baby baby don't get hooked on me


 C F 
Girl you're a hot blooded woman child

                                 C 
And it's warm where you're touching me

                        F 
But I can tell by your trembling smile

                            C 
You're seeing way too much in me


 Em 
Girl don't let your life 

     Am 
Get tangled up with mine

 Dm 
Cause I'll just leave you

              G7 
I can't take no clinging vine


 C Dm 
Baby baby don't get hooked on me

 G7 C 
Baby baby don't get hooked on me

                                   Dm 
Cause I'll just use you then I'll set you free

 G7 F 
Baby baby don't get hooked on me

Dreams Smm chords – Fleetwood Mac

 Key: C    BPM: 120bpm

Intro
 F G   4x

Verse 1
 F G F G 
   Now here you go again, you say you want your freedom;
 F G F G 
   Well, who am I to keep you down?
 F G F G 
   It's only right that you should play the way you feel it;
     F G F G   
but listen carefully to the sound, of your loneliness
        F G 
Like a heartbeat drives you mad
      (heart)               (beat)
          F G F G 
In the stillness of remembering what you had,
        (oooh)          (oooh)            (lonely)
                 F G 
And what you lost
               (ooh ooh)
                F G 
And what you had
              (lonely)
                 F G 
And what you lost
               (ooh ooh)

Chorus
     Fmaj7 G6 F G 
Oh, thunder only happens when it's raining
 Fmaj7 G6 F G 
Players only love you when they're playing
      Fmaj7 G6 F G 
Say, women they will come and they will go
 Fmaj7 G6 F G F G 
When the rain washes you clean, you'll know, you'll know

Instrumental  
 F G   4x

Verse 2
 F G F G 
  Now here I go again, I see the crystal visions
 F G F G 
  I keep my visions to myself
 F G F G 
It's only me who wants to wrap around your dreams and
 F G F G     
Have you any dreams you'd like to sell? Dreams of loneliness
        F G 
Like a heartbeat drives you mad
      (heart)               (beat)
          F G F G 
In the stillness of remembering what you had,
        (oooh)          (oooh)            (lonely)
                 F G 
And what you lost
               (ooh ooh)
                F G 
And what you had
              (lonely)
                 F G 
And what you lost
               (ooh ooh)

Chorus 2x (skip second you'll know in the first one)

          F G F    
You will know, ay ay ay you'll know

Because We Are Young chords – Mac Wiseman

 C G7 
Because we are young they say I’ll forget you

                                  C 
They say I’ll forget that I ever met you

                             C7 F 
And maybe they’re right but just for tonight

                     C G7 C 
Don’t say we’re not right because we are young


                    F C 
Though our love is young we still have control

                 D7 G7 
We know we must wait without being told

    C C7 F 
We still have our pride we’ve nothing to hide

                 C G7 C 
Don’t cast love aside because we are young


                                      G7 
I know they mean well when they criticize me

                                           C 
I wish in their hearts they knew what’s inside me

                     C7 F 
I know my own heart love must have a start

             C G7 C 
Why keep us apart because we are young


               F C 
And someday I hope they’ll know how we feel

           D7 G7 
When they realize that our love is real

    C C7 F 
So please hold me tight and just for tonight

                     C G7 C 
Don’t say we’re not right because we are young

Bestest Friend chords – Mac Davis

 G 
Who wipes me off when I spill gravy on my shirt

                            A7 D7 
Who knows exactly where to kiss me when I hurt

     G C 
And who'll make love to me in satin sheets or in the dirt

     G D7 G 
You Babe  you're my bestest friend

 
 
Who takes me home when I get too drunk to dance

                             A7 D7 
Who bravely puts up with my uncles and my aunts

     G C 
And who discretely whispers I forgot to zip my pants

     G D7 G 
You Babe  you're my bestest friend

 
     C G 
Who comes down to bail me out when I get in a jam

     C G D7 
And helps me tell the police where I live and who I am

     G C 
And who pats my back when no one else could give a damn

     G D7 G 
You Babe  you're my bestest friend

 
     C G 
Who can be as gentle as a sparrow in my hand

    C G D7 
Or meaner than a junk yard dog when she's fighting for her man

     G C 
And who's the only one I'll ever love or understand

     G D7 G 
You Babe  you're my bestest friend

 
                             D7 G 
I'm talking about you Babe  you're my bestest friend

Dont Stop chords – Fleetwood Mac V3

 Don't Stop - Fleetwood Mac (Christine McVie, 1976)
Chorded By: Skidaddy, Esq., G.Q.

4/4 TIME @ 118 BPM (3 Min. 20 Sec.) in 'E'.

Chords Used:
-----------
             GUITAR              KEYBOARD
         E A D G B   e     Bass|   Chord
       ------------------    ----------------
E    -  0  2  2  1  0  0      E    B-E-G#
A/E  -  0  0  2  2  2  0      E    A-C#-E     -OR-
     -  x  x  2  2  2  0
D    -  x  x  0  2  3  2      D    A-D-F#
A    -  x  0  2  2  2  0      A    A-C#-E
B7   -  x  2  1  2  0  2      B    B-D#-F#-A  -OR-  
     -  x  2  4  2  4  2
D/E  -  0  0  0  2  3  2      E    A-D-F#     -OR-
     -  x  x  2  2  3  2
NC   -  NO CHORD

INTRO: [8 Measures]
-----

 1 2+3 4 …
| E A/E   | E A/E   | E A/E   | E A/E   | E A/E   | E A/E   | E A/E   | E A/E   |

VERSE #1: [8 M]
--------

| E D             | A                       | E D              |
  If you wake… up… and don't want to smile…      If… it takes… just… a

| A                   | E D          | A                    |
 lit-tle while,…       o-pen your eyes…  and look at the day…

| B7                        |…                  |
 You'll… see… things… in a dif-f'rent… way…

CHORUS #1: [12 M]
---------

| E D/E     | A                               | E D/E     |
 Don't…   stop…   think-in' a-bout… to-mor-… row… Don't…   stop…

| A                       | E D/E      | A                        |
 it-'ll soon… be here…     It-'ll be here,…   bet-ter than be-fore…

| B7                            |…                  |
 Yes-… ter-day's gone,…   yes-… ter-day's gone…

| E D/E   | A        | E D/E   | A        |

VERSE #2: [8 M]
--------

| E D              | A                   | E D           |
  Why not… think… a-bout… times… to come,…     and not a-bout…   the

| A                           | E D          | A                |
 things that you've… done…     If… your life… was… bad… to you,…

| B7                      |…                  |
   just… think… what… to-mor-… row will do…

CHORUS #2: [10 M]
---------

| E D/E     | A                               | E D/E     |
 Don't…   stop…   think-in' a-bout… to-mor-… row… Don't…   stop…

| A                       | E D/E      | A                        |
 it-'ll soon… be here…     It-'ll be here,…   bet-ter than be-fore…

| B7                            |…                  |…       |…       |
 Yes-… ter-day's gone,…   yes-… ter-day's gone…

GUITAR SOLO: [10 M]
-----------

| E D    | A        | E D    | A        | E D    | A        |


| B7       |…       |…       |…       |

VERSE #3: [8 M]
--------

| E D        | A                   | E D            |
  All I want… is… to see you… smile…      If… it takes… just…

| A                    | E D          | A                        |
 a lit-tle while…      I know you don't…  be-lieve that it's true…

| B7                    |…               |
  I nev

Say You Will chords – Fleetwood Mac V2

 SONG:   SAY YOU WILL
ARTIST: FLEETWOOD MAC
TAB BY: DON CZARSKI
EMAIL:  GUITARZAN7@HOTMAIL.COM

                SAY YOU WILL
               FLEETWOOD MAC

INTRO: 
 Bb C F Bb C F Bb C F Bb 

              
VERSE:
  Bb C F 
Somethin' in you brought out somethin' in me, 
       Bb C F 
That I've never been since
  Bb C F 
That part of me that was only for you, 
       C Bb 
That kind of romance
  Bb C F 
Comes only once, that kind of love
       Bb C F  
That kind of fever dance
           Bb C F Bb 
That you love because you become someone else in an instant

 
CHORUS:
 Bb F Gm 
Say you will, say you will give me one more chance
     Am Bb 
At least give me time to change your mind
       C Dm Am  
That always seems to heal the wounds, if I can
             Bb 
Get you to dance 


VERSE:
  Bb C F 
Somethin' in you put a hold on my heart
       Bb C F 
It's hard to believe now
  Bb C F  
Here in the place that will never be dark
      C Bb 
I remember that place.
  Bb C F 
That kind of touch, electricity of love
       Bb C F 
That certain kind of grace
           Bb C F Bb 
That you love because you become someone else in an instant


CHORUS:
 Bb F Gm 
Say you will, say you will give me one more chance
     Am Bb 
At least give me time to change your mind
       C Dm Am  
That always seems to heal the wounds, if I can
             Bb Bb 
Get you to dance  


INSTRUMENTAL:
 F Bb C Bb C F Bb C F Bb C F C Bb C Bb C F Bb   


CHORUS:
  Bb F Gm                 
Say you will, say you will give me one more chance 
     Am Bb 
At least give me time to change your mind 
       C Dm Am 
That always seems to heal the wounds, if I can
             Bb 
Get you to dance


CHORUS:
  Bb F Gm                 
Say you will, say you will give me one more chance 
     Am Bb 
At least give me time to change your mind 
       C Dm Am 
That always seems to heal the wounds, if I can
             Bb 
Get you to dance


CHORUS:
  Bb F Gm                 
Say you will, say you will give me one more chance 
     Am Bb 
At least give me time to change your mind 
       C Dm Am 
That always seems to heal the wounds, if I can
             Bb 
Get you to dance


CHORUS:
  Bb F Gm                 
Say you will, say you will give me one more chance 
      Am Bb 
At least give me time to change your mind 
       F Dm Am 
That always seems to heal the wounds, if I

The Stars Keep On Calling My Name solo Tabs – Mac Demarco

 This is the solo at the end of the album version song:

From 1:45 to the end (2:23)

Note: the solo in the live version is 100% different, so make sure you listen the album/studio version.

Tuning: Standard (EADGBe)

e -----------------------
B --/15-15-15-15----15---
G -----------------------
D -----------------------
A -----------------------
E -----------------------

e ------------------15---
B --/15-15-15-15---------
G -----------------------
D -----------------------
A -----------------------
E -----------------------

e ------------------------------------
B --/15-15-15-15p12-------------------
G ------------------14p12-14-14p12-14-
D ------------------------------------
A ------------------------------------
E ------------------------------------

e ------------------17---
B --/15-15-15-15---------
G -----------------------
D -----------------------
A -----------------------
E -----------------------

e ------------------15---
B --/15-15-15-15---------
G -----------------------
D -----------------------
A -----------------------
E -----------------------

e ----------------------------
B --/15-15-15-15----15p12-----
G ------------------------14--
D ----------------------------
A ----------------------------
E ----------------------------

e -----------------------
B --/15-15-15-15----15---
G -----------------------
D -----------------------
A -----------------------
E -----------------------

e ------------------15---
B --/15-15-15-15---------
G -----------------------
D -----------------------
A -----------------------
E -----------------------

e ----------------19-17b19b17-15-15-17---
B --/15-15-15-15-------------------------
G ---------------------------------------
D ---------------------------------------
A ---------------------------------------
E ---------------------------------------

                                  (wait)
e ---------------------------------------------------------------------------------------------------
B --/15-15-15-15----15p12-15-15-------------12-------------------------------------------------------
G ----------------------------------------------14-14-----14b16b14-14-12-14---14b16b14-14-12-12------
D ---------------------------------------------------------------------------------------------------
A ---------------------------------------------------------------------------------------------------
E ---------------------------------------------------------------------------------------------------

e ----------------------
B ----------------------
G --14b16b14-14-12-12---
D ----------------------
A ----------------------
E ----------------------


Notation:
"/15" means slide from anywhere.
"14b16b14" means bend "14" until it sounds like "16" and from there bend it back so it sounds again like "14"

In The Back Of My Mind chords – Fleetwood Mac

 ---------------------------------------------------------------------------
          In the Back of My Mind – Fleetwood Mac 
---------------------------------------------------------------------------
: maguri
Tuning: Standard

Fleetwood Mac 
In the Back of My Mind (1990)
(Billy Burnette, David Malloy)

From: "Behind the Mask"

---------------------------------------------------------------------------
CHORDS

          E-A-D-G-B-e
G(5)      3-x-0-0-3-3
D/F#      2-x-0-2-3-2
C/Bb      x-1-2-0-1-0

---------------------------------------------------------------------------

INTRO 
percussion and sound collage (0:00-2:13)

starting 2:14
| no chord | % | 
 (drums only)

|  Am  |  F  |  Am  |  F  | 
|  Am  |  F  |  Am  |  F  | 


VERSE
 F Am 
  Well I try and I try
               F 
(You can't forget her)
                    Am 
I can't run, can't hide
             F 
(When you remember)
                   Am 
Nights that won't fade away
   |  G  | % |
Yea fade away


VERSE
 F Am 
  Well I still go crazy
                     F 
 (When you hear her name)
                     Am 
Feels like you just left today
                      F 
(And it drives you insane)
              Am 
But you keep holdin' on
   |  G  | % |
Yea holdin' on


CHORUS
 Am G 
 In the back of my mind
                  D/F# 
You live all the time
        F E Am 
In the back of my mind (In the back of my mind)
 Am G 
 Every night, every day
                        D/F# 
That's where you still play
        F E     |  Am  |  F  |  Am  |  F  |
In the back of my mind


VERSE
 F Am 
  When I close my eyes
                F 
(You can still touch her)
            Am 
And I fantasize
                   F 
(She's still your lover)
             Am 
When I wake up I see
          G G 
The only place you'll be, I know where you'll be


CHORUS
 Am G 
 In the back of my mind
                  D/F# 
You live all the time
        F E Am 
In the back of my mind (In the back of my mind)
 Am G 
 Every night, every day
                        D/F# 
That's where you still play
        F E     |  Am  |  F  |
In the back of my mind


MIDDLE 8
 C C/Bb 
 I remember your eyes burnin' bright
      Am G 
Like we touched the summer sun
 C C/Bb 
 I can see your shadow standin' there
        Am                       |  G F  | 
On the streets where we used to run


INTERLUDE
|  Am  | % |  Am G  |  Am  |
Ohh, remember


SOLO
|  Am  |  G  |  D/F# F E  |  Am  | 
|  Am  |  G  |  D/F# F E  |  Am  | 


CHORUS
 Am G 
 In the back of my mind
                  D/F# 
You live all the time
        F E Am 
In the back of my mind (In the back of my mind)
 Am G 
 Every night, every day
                        D/F# 
That's where you still play
        F E     |  Am  |  F</s

Go Easy chords – Mac Demarco

 Mac Demarco
Go Easy
Salad Days (2014)
Captured Tracks

Here is my version of Go Easy, I think you can play along with the album if you tune your guitar to 452Hz.
I've posted my version below aswell if anyone wants to listen to that for the way i've played it. I've also
posted the intro tab below the chords, however this is not relevant to the capo!!



Chords: (Relative to capo)

G6   3-2-0-0-0-0
F#m7 2-4-2-2-2-2
A*   X-0-4-0-2-0
Em   0-7-9-0-8-0
 Bm    X-2-4-0-3-0

Capo 2

Intro: G6, F#m7, A* X4

Verse:
 G6 F#m7       A*
Pack it up and leave it, leave it all behind you
 G6 F#m7            A*
Start it fresh in someone else’s town
     G6 F#m7      A*
And though we may be leaving, I’ll be right beside you
    G6 F#m7            A*
To pick you up until you come around

Chorus:
    Em Bm       A*
So please, go easy with my baby
 Em Bm       A*
Please, go easy
    Em Bm       A*
Please, go easy with my baby
 Em Bm       A*
Please, go easy

Break: G6, F#m7, A* X4

Verse:
 G6 F#m7        A*
Down here can be tough, without your friends beside you
     G6 F#m7              A*
You built it up, just to knock it down
    G6 F#m7    A*
So when you’re feeling rough, I’ll be right behind you
    G6 F#m7            A*
To pick you up until you come around

Chorus:
    Em Bm       A*
So please, go easy with my baby
 Em Bm       A*
Please, go easy
    Em Bm       A*
Please, go easy with my baby
 Em Bm       A*
Please, go easy     X2

Outro: G6, F#m7, A* X4
-------------------------------------------------------------------------------------------------------------
Intro/Break/Outro Lead riff:

e|----------------------------------------------------------|
B|------12--------------------------------------------------|
G|-11/13--13-11-13-11-13/14/13-11---------------------------|
D|-------------------------------13-14-13-13/11-13/11-------|
A|---------------------------------------------------11-14--|
E|----------------------------------------------------------|

Annie Tabs – Mac Demarco

 -------------------------------------------------------------------------------
                             Annie - Mac Demarco
-------------------------------------------------------------------------------
: originally by weino523, breakdown by DrWangerBanger


Tuning: Standard, capo on 4

    E  G  A  F
e|-----3--5--1--------|
B|-----3--5--1--------|
G|--1--4--6--2--------|
D|--2--5--7--3--------|
A|--2--5--7--3--------|
E|-----3--5--1--------|

"I'm going down" breakdown:

Here are the 4 basic chords:

e|-----------0-----|
B|--5--0--0--0-----|
G|--5--3--2--1-----|
D|--4--2--1--2-----|
A|-----------2-----|
E|--5--3--2--0-----|

Intro: A G E 4x

A   G
Annie 
E          A         G
knows when its me
E          A       G     E         A       G   E
Knows how Im feeling and gives me her healing
   A   G  E        A      G
Oh Annie, sit down beside me
E       A         G    F                E                        
Let me confide in you, you know when Im blue        
F                E           F          E
You know when Im lonely and, honey, Im lonely

e|-------------------------------------------------------0--2--2---|
B|-----------5-------------------------------0--0-----0--------0---|
G|--------5-----------0--3--4--4--0-------2-----1--1-----------1---|
D|-----4-----------2-------------------1--------2--------------2---|
A|----------------------------------------------2--------------2---|
E|--5-----------3-------------------2-----------0--------------0---|

Im going down, going down, going down, going down 

A   G  E              A   G
Annie, daddy wont let me
E           A     G       E          A        G   E
Daddy wont let me go and thats why I feel so low
   A   G   E       A      G
Oh Annie, sit down beside me
E       A         G    F                E                        
Let me confide in you, you know when Im blue        
F                E           F          E
You know when Im lonely and, honey, Im lonely

e|-------------------------------------------------------0--2--2---|
B|-----------5-------------------------------0--0-----0--------0---|
G|--------5-----------0--3--4--4--0-------2-----1--1-----------1---|
D|-----4-----------2-------------------1--------2--------------2---|
A|----------------------------------------------2--------------2---|
E|--5-----------3-------------------2-----------0--------------0---|

Im going down, going down, going down, going down

************************************

| /   slide up
| \   slide down
| h   hammer-on
| p   pull-off
| ~   vibrato
| +   harmonic
| x   Mute note
| b   Bend
| pb  Pre-bend
| br  Bend release
| pbr Pre-bend release
| brb Bend release bend

************************************

Desperado intro Tabs – Mac Miller

 -------------------------------------------------------------------------------
                             Desperado (Intro) - Mac Miller
-------------------------------------------------------------------------------
Tabbed by: Zach P

Tuning: Drop D (DADGBe)

e|-----------------------------------------------------------------------|
B|----9-11/14--12h14h16--16p14p12-11---11h12-14-12-12p11p9--7-7h9p7\6----|
G|--8-----------------------------------------------------------------8--|
D|-----------------------------------------------------------------------|
A|-----------------------------------------------------------------------|
D|-----------------------------------------------------------------------|

e|-----------------------------------------------------------------------|
B|-----------------------------------------------------------------------|
G|-----------------------------------------------------------------------|
D|--4h6------------------------------------------------------------------|
A|-------4h6--2h4--1h2p1-------------------------------------------------|
D|------------------------6--4--0----------------------------------------|



************************************

| /   slide up
| \   slide down
| h   hammer-on
| p   pull-off
| ~   vibrato
| +   harmonic
| x   Mute note
| b   Bend
| pb  Pre-bend
| br  Bend release
| pbr Pre-bend release
| brb Bend release bend

************************************

Ode To Viceroy chords – Mac Demarco

 Mac Demarco - Ode To Viceroy

Please note that this isn't mean't to be exactly the same as the original song,
It's how I play it on acoustic guitar. It doesn't fit the melody, it does fit the lyrics.
Capo 2 is the best way to go if you want it to sound like the original. I prefer Capo 5.
Just place the capo where ever you want it to be and enjoy!


Chords are:

 Cmaj7    : 032000
 Cadd9    : 032030
 C        : 032010
 G        : 320000
 C *      : 335553
 A        : 002220
 Em       : 022000




Intro:

 CMaj7 - Cadd9 - C - G  X4




 CMaj7 - Cadd9 C G 
Viceroy,
              CMaj7 - Cadd9 C G 
early in the morning
                        CMaj7 - Cadd9 C G 
just tryin' to let the sun in,
                CMaj7 - Cadd9 C G 
and open up my eyes




 CMaj7 - Cadd9 C G 
Viceroy,
                 CMaj7 - Cadd9 C G 
as it's gettin' later,
                 CMaj7 - Cadd9 C G 
headin' for the corner,
                 CMaj7 - Cadd9 C G 
already runnin' dry




Chorus:

     C *    A C *              A C *     A 
And oooohooh don't let me see you cryin'
        C *     A C *             A C *     A 
'cause ooooh honey I smoke ya till I'm dyin'




 CMaj7 - Cadd9 C G 
Viceroy,
                     CMaj7 - Cadd9 C G 
don't take me for a fool now,
                   CMaj7 - Cadd9 C G 
I'm only tryin to calm down,
                        CMaj7 - Cadd9 C G 
just tryin' to keep it cool




 CMaj7 - Cadd9 C G 
Viceroy,
                 CMaj7 - Cadd9 C G 
as it's gettin' later,
                 CMaj7 - Cadd9 C G 
headin' for the corner,
                   CMaj7 - Cadd9 C G 
I'm leavin' it to you




Chorus:

     C *    A C *              A C *     A 
And oooohooh don't let me see you cryin'
        C *     A C *             A C *     A 
'cause ooooh honey I smoke ya till I'm dyin'




Outro:

 CMaj7 - Cadd9 C G  

Repeat and end with an Em

Sad Angel Tabs by Fleetwood Mac

 -------------------------------------------------------------------------------
                             SAD ANGEL (live) - Fleetwood Mac
-------------------------------------------------------------------------------
: Sauter_Do
 ---

Tuning: Standard


This is an approach to the live-version they played on the REUNION TOUR 2013.

The intro is separated into eighth notes and is a real rhythmic thing.
The first seven notes are played palm muted, the last one is accented and played as a 
full down stroke.
Notice also the timing between the notes, it goes like this:
"Bam Bam BamBam Bam BamBamBaaaaam"
"Bam Bam BamBam Bam BamBaBaaaaam"




I N T R O

      F#      F#     F#       F#            F#   F#      F#      F#      F#
e|--------------------------------------------------------------------------------|
B|--------------------------------------------------------------------------------|
G|----11---11-11-11---11---11-11-11---------11---11---11-11-11---11---11-11-11----|
D|----11---11-11-11---11---11-11-11---------11---11---11-11-11---11---11-11-11----|
A|-----9----9--9--9----9----9--9--9----------9----9----9--9--9----9----9--9--9----|
E|--------------------------------------------------------------------------------|

      F#      F#       F#     F#            B#   B#   B#     B#    B#
e|--------------------------------------------------------------------------------|
B|--------------------------------------------------------------------------------|
G|----11---11-11-11---11---11-11-11--------- 8---8---8-8-8---8---8-8-8------------|
D|----11---11-11-11---11---11-11-11----------8---8---8-8-8---8---8-8-8------------|
A|-----9----9--9--9----9----9--9--9----------6---6---6-6-6---6---6-6-6------------|
E|--------------------------------------------------------------------------------|




V E R S E


"My eyes, were consumed..."

      F#      F#      F#      F#            F#   F#      F#      F#      F#
e|--------------------------------------------------------------------------------|
B|--------------------------------------------------------------------------------|
G|----11---11-11-11---11---11-11-11---------11---11---11-11-11---11---11-11-11----|
D|----11---11-11-11---11---11-11-11---------11---11---11-11-11---11---11-11-11----|
A|-----9----9--9--9----9----9--9--9----------9----9----9--9--9----9----9--9--9----|
E|--------------------------------------------------------------------------------|

      F#      F#      F#      F#             B#   B#   B#     B#    B#
e|--------------------------------------------------------------------------------|
B|--------------------------------------------------------------------------------|
G|----11---11-11-11---11---11-11-11----------8---8---8-8-8---8---8-8-8------------|
D|----11---11-11-11---11---11-11-11----------8---8---8-8-8---8---8-8-8------------|
A|-----9----9--9--9----9----9--9--9----------6---6---6-6-6---6---6-6-6------------|
E|--------------------------------------------------------------------------------|


"Your dreams would not wake...."


      F#      F#     F#       F#            F#   F#      F#      F#      F#
e|--------------------------------------------------------------------------------|
B|--------------------------------------------------------------------------------|
G|----11---11-11-11---11---11-11-11---------11---11---11-11-11---11---11-11-11----|
D|----11---11-11-11---11---11-11-11---------11---11---11-11-11---11---11-11-11----|
A|-----9----9--9--9----9----9--9--9----------9----9----9--9--9----9----9--9--9----|
E|--------------------------------------------------------------------------------|

      F#      F#       F#     F#            B#   B#   B#     B#    B#
e|--------------------------------------------------------------------------------|
B|--------------------------------------------------------------------------------|
G|----11---11-11-11---11---

Need Your Love So Bad Tabs by Fleetwood Mac V2

 -----------------------------------------------------------------
              Need Your Love So Bad-Fleetwood Mac
-----------------------------------------------------------------

 : Aeonoptic   

12/8

Tuning:EADGBe
Intro:             
E|-------------------|--------------------|--------------------------|
B|----10-12b14b13b14~|----10h12---10------|---------10-12----10~-----|
G|-11----------------|-11-------11----11--|----9/11-------11---------|
D|-------------------|--------------------|-12-----------------------|
A|-------------------|--------------------|--------------------------|
E|-------------------|--------------------|--------------------------|

   
E|-------------------------|--------------------|------12b14---------|
B|----10----12b14-12b14-10~|----10-12br14p10~---|12b14---------14pb12| >B|-10-12-|-----10h12---10----12b14-10~---|---7-10-12-13-14\--------|
  G|-------|--11-------11---11-------------|-------------------------|
  D|-------|-------------------------------|-------------------------|
  A|-------|-------------------------------|-------------------------|
  E|-------|-------------------------------|-------------------------|

End:
E|----------------------------|-----13b15-12-----|---------------------------|
B|----12b14-12p10-12b14-12b14-|--10----------10~-|-10----10-13b15-13-10-10---|
G|-11-------------------------|------------------|----11-------------------11|
D|----------------------------|------------------|---------------------------|
A|----------------------------|------------------|---------------------------|
E|----------------------------|------------------|---------------------------|

E|-13b15-12-10------------------|
B|-------------10---------------|
G|-------------------Fade out---|
D|------------------------------|
A|------------------------------|
E|------------------------------|

| /  slide up
| \  slide down
| h  hammer-on
| p  pull-off
| ~  vibrato
| +  harmonic
| x  Mute note

Dreams Tabs by Fleetwood Mac V3

 Dreams - Fleetwood Mac

I was utterly disappointed in the tabs for this song, so I thought I'd do it myself: 


Chords throughout song:

       F - G

E-|---1-----3---|
B-|---1-----3---|        I like to follow the rhythm of the
G-|---2-----4---|        rock organ throughout the song
D-|---3-----5---|
A-|---3-----5---|
E-|---1-----3---| 

Intro

E-|--------|---------------|---------------|----------|
B-|---10---|---------------|---------------|----------|
G-|--------|---7b9b7p5-----|---------------|----------|
D-|--------|-----------7---|---7b9b7p5-----|---5--7---|
A-|--------|---------------|-----------7---|----------|
E-|--------|---------------|---------------|----------|


Enter Nix:

"Now here you go again you say you want your freedom..
 Well who am I to keep you down?"

E-|----------------|------------------|
B-|----------------|------------------|
G-|----------------|------------------|
D-|---7b9b7p5------|------5-----------|
A-|-----------7----|---/7---7-5-3-0---|
E-|----------------|------------------|

"It's only right that you should play the way you feel it
 But listen carefully to the sound of your loneliness..."


E-|-------------|------------------|
B-|-------------|------------------|
G-|---9---------|------------------|
D-|------9--7---|------------------|
A-|-------------|------------------|
E-|-------------|------------------|

Pre-Chorus:

"Like a heartbeat drives you mad, in the stillness of remembering what you had,
 And what you lost, and what you had, and what you lost...."

E-|-------------------------|----------------------------|-----------|--------------------------|
B-|-------------------------|----------------------------|-----------|--------------------------|
G-|--------9----------10----|-------12----------10-------|--3x then--|-------12-----10p9--------|
D-|-----10---10----10----10-|----10----10----10----10----|-----------|----10----10-------12-10--|
A-|---8---------10----------|-12----------10----------10-|-----------|-12-----------------------|
E-|-------------------------|----------------------------|-----------|--------------------------|

Chorus:

"Thunder only happens when it's raining /
 Players only love you when they're playing /
 Say women, they will come and they will go /
 When the rain washes you clean you'll know"

       F---G

E-|---1-----3---|
B-|---1-----3---|
G-|---2-----4---|       Listen for the strumming pattern
D-|---3-----5---|       I'm pretty sure there is some ambient
A-|---3-----5---|       lead guitar sounds throughout the chorus
E-|---1-----3---|       as well



Post Chorus Lead Riff:

E-|--8-------------------|-----------------|--------------|------------|
B-|-----10-8-10-8-10-----|--10-8-----------|--------------|--10-8------|
G-|------------------7---|-------7---------|---x2---then--|-------7----|
D-|----------------------|-----------10-7--|--------------|---------7--|
A-|----------------------|-----------------|--------------|------------|
E-|----------------------|-----------------|--------------|------------|

Verse:

"Now here I go again, I see the crystal visions
 I keep my visions to myself"

E-|----------------|------------------|
B-|----------------|------------------|
G-|----------------|------------------|
D-|---7b9b7p5------|------5-----------|
A-|-----------7----|---/7---7-5-3-0---|
E-|----------------|------------------|

"Its only me, who wants to wrap around your dreams and
 Have you any dreams you'd like to sell? Dreams of loneliness..."

E-|---------------|-----------------|
B-|---------------|-----------------|
G-|---7b9b7\5-----|-----------------|
D-|-----------7---|-----------------|
A-|---------------|-----------------|
E-|---------------|-----------------|

Pre-Chorus:

"Like a heartbeat drives you mad, in the stillness of remembering what you had,
 And what you lost, and what you had, and what you lost...."

E-|-----