Tag: makes

She Makes Dirty Words Sound Pretty Chords version 2 by Pierce the Veil

[Chords]
  Emaj7 E  Am Am6  B  A
e|--4---4--5---5---0--0--|
B|--4---5--5---7---7--5--|
G|--4---4--5---5---8--6--|
D|--6---6--7---7---9--7--|
A|--7---7--0---0---9--7--|
E|--0---0--0---0---0--0--|

[Intro]
Emaj7 Am Am6 Am
Emaj7 E Emaj7 Am Am6

[Chorus]
                  Emaj7
If you call me at all
                       E    Emaj7
Don't tell me that I'm ordinary
Am               Am6             Am
Cause I won't be passing you, please don't leave
Emaj7                E         Emaj7    Am            Am6   Am
And if you tell me you're listening to everything you read

[Verse 1]
Emaj7         Am             Emaj7
Turn off this light, call my name
Emaj7       Am   Am6  Emaj7
Don't talk, just ride
Emaj7                        Am
Who wouldn't let you be all about,
Am6      Emaj7
About me
E                   Am           Am6
I'm only trying to work this out

[Chorus]
                     Emaj7
So if you call me at all
                       E    Emaj7
Don't tell me that I'm ordinary
Am               Am6             Am
Cause I won't be passing you, please don't leave
Emaj7                E         Emaj7    Am            Am6
And if you tell me you're listening to everything you read
Am
If you call me at all

[Verse 2]
Emaj7          E         Am
Oh, I hear you breathing on the line
        Am6       Emaj7
Oh baby girl, I'm not your type
               E       Am
I'll leave you hurting every night
                          Emaj7
So I won't be coming back
E                         Am
Who wouldn't let me be all alone
Am6                       Emaj7
Who wouldn't let me be all alone
E                           Am  Am6                B
Who wouldn't let you scream ohh to a soft pillow

[Bridge]
            A
I'm such an animal
         B                                  A   Am6
And baby honestly these teeth won't let you go

[Chorus]
Emaj7                  E    Emaj7
Don't tell me that I'm ordinary
Am               Am6             Am
Cause I won't be passing you, please don't leave
Emaj7                E         Emaj7    Am            Am6
And if you tell me you're listening to everything you read
       Am         Emaj7
If you call me at all
                       E    Emaj7
Don't tell me that I'm ordinary
Am               Am6             Am
Cause I won't be passing you, please don't leave
Emaj7                E         Emaj7    Am            Am6   Am
And if you tell me you're listening to everything you read

[Outro]
                  Am  Am6
If you call me at all
       Am         Emaj7 E
If you call me at all
       Emaj7      Am  Am6
If you call me at all
       Am         Emaj7 E
If you call me at all
       Emaj7      Am
If you call me at all

Beneath The Piano Tabs – The Devil Makes Three

 No Capo

[Intro] - | E7 | A7 | E7 | B7 | E7 | A7 | E7 B7 | E7 | 
                                                            P.M. -Cresc.
e |---0---0---0---0-|---------5-5-----|---0---0---0---0-|-----------------|
B |---3---3---3---3-|---5---8-5-5-8-5-|---3---3---3---3-|---0---0-----0---|
G |---1-X-1---1-X-1-|---6-X-6-6-6-6-6-|---1-X-1---1-X-1-|---2-X-2-2-2-2---|
D |---0-X-0---0-X-0-|---7-X-7-7-7-7-7-|---0-X-0---0-X-0-|---1-X-1-1-1-1---|
A |---2-X-2---2-X-2-|-0---X---0-0-0-0-|---2-X-2---2-X-2-|-2---X-----------|
E |-0-------0-------|-----------------|-0-------0-------|-----------------|

e |---0---0---0-----|-----------------|---0---0---------|--0---0---0-0-0--|
B |---3---3---3---3-|---5---8---8-7-5-|---3---3---0---0-|--3---3---3-3-3-2|
G |---1-X-1---1---X-|---6-X-6-X-6-6-6-|---1-X-1---2-X-2-|--1-X-1---1-1-1-0|
D |---0-X-0---0---0-|---7-X-7-X-7-7-7-|---0-X-0---1-X-1-|--0-X-0---0-0-0-0|
A |---2-X-2---2-2-1-|-0---X---X-------|---2-X-2-2---X---|--2-X-2---2-2-2-1|
E |-0-------0-------|-----------------|-0---------------|0-------0--------|

[Verse 1] - | E7 | A7 | E7 | B7 | x2                 | E | C | B D | E | x2

e |---0---0---0---0-|---------5-5-----|---0---0---0---0-|-----------------|
B |---3---3---3---3-|---5---8-5-5-8-5-|---3---3---3---3-|---0---0---0---0-|
G |---1-X-1---1-X-1-|---6-X-6-6-6-6-6-|---1-X-1---1-X-1-|---2-X-2---2-X-2-|
D |---0-X-0---0-X-0-|---7-X-7-7-7-7-7-|---0-X-0---0-X-0-|---1-X-1---1-X-1-|
A |---2-X-2---2-X-2-|-0---X-----------|---2-X-2---2-X-2-|-2---X---2---X---|
E |-0-------0-------|-----------------|-0-------0-------|-----------------|

e |---0---0---0---0-|-----------------|---0---0---0---0-|-----------------|
B |---3---3---3---3-|---5---8---8---5-|---3---3---3---3-|---0---0---0---0-|
G |---1-X-1---1-X-1-|---6-X-6---6-X-6-|---1-X-1---1-X-1-|---2-X-2---2-X-2-|
D |---0-X-0---0-X-0-|---7-X-7---7-X-7-|---0-X-0---0-X-0-|---1-X-1---1-X-1-|
A |---2-X-2---2-X-2-|-0---X---0---X---|---2-X-2---2-X-2-|-2---X---2---X---|
E |-0-------0-------|-----------------|-0-------0-------|-----------------|

e |---0---0---0---0-|-----------------|-----------------|-----------0---0-|
B |---3---3---3---3-|---5---5---5---5-|---4---4---7---7-|---3---3---3---3-|
G |---1-X-1---1-X-1-|---3-X-3---3-X-3-|---2-X-2---5-X-5-|---1-X-1---1-X-1-|
D |---0-X-0---0-X-0-|---5-X-5---5-X-5-|---4-X-4---7-X-7-|---0-X-0---0-X-0-|
A |---2-X-2---2-X-2-|-3---X---3---X---|-2---X---5---X---|---2-X-2---2-X-2-|
E |-0-------0-------|-----------------|-----------------|-0-------0-------|

e |---0---0---0---0-|-----------------|-----------------|-----------0---0-|
B |---3---3---3---3-|---5---5---5---5-|---4---4---7---7-|---3---3---3---3-|
G |---1-X-1---1-X-1-|---3-X-3---3-X-3-|---2-X-2---5-X-5-|---1-X-1---1-X-1-|
D |---0-X-0---0-X-0-|---5-X-5---5-X-5-|---4-X-4---7-X-7-|---0-X-0---0-X-0-|
A |---2-X-2---2-X-2-|-3---X---3---X---|-2---X---5---X---|---2-X-2---2-X-2-|
E |-0-------0-------|-----------------|-----------------|-0-------0-------|

[Verse 2] - | E7 | A7 | E7 | B7 | x2                 | E | C | B D | E | x2

e |---0---0---0---0-|-----------------|---0---0---0---0-|-----------------|
B |---3---3---3---3-|---5---8-5-5-8-5-|---3---3---3---3-|---0---0---0---0-|
G |---1-X-1---1-X-1-|---6-X-6-6-6-6-6-|---1-X-1---1-X-1-|---2-X-2---2-X-2-|
D |---0-X-0---0-X-0-|---7-X-7-7-7-7-7-|---0-X-0---0-X-0-|---1-X-1---1-X-1-|
A |---2-X-2---2-X-2-|-0---X-----------|---2-X-2---2-X-2-|-2---X---2---X---|
E |-0-------0-------|-----------------|-0-------0-------|-----------------|

e |---0---0---0---0-|-----------------|---0---0---0---0-|-----------------|
B |---3---3---3---3-|---5---8---8---5-|---3---3---3---3-|---0---0---0---0-|
G |---1-X-1---1-X-1-|---6-X-6---6-X-6-|---1-X-1---1-X-1-|---2-X-2---2-X-2-|
D |---0-X-0---0-X-0-|---7-X-7---7-X-7-|---0-X-0---0-X-0-|---1-X-1---1-X-1-|
A |---2-X-2---2-X-2-|-0---X---0---X---|---2-X-2---2-X-2-|-2---X---2---X---|
E |-0-------0-------|-----------------|-0-------0-------|-----------------|

e |---0---0---0---0-|-----------------|---0-

It Makes Me So Sad chords – Mickey Newbury

 It Makes Me So Sad

 G G7 C 
It makes me so sad to see you so mad about him, baby
 D7 G 
I once would have done anything for you, baby
                      G7 C Cm 
Then he walked in to your life one day, he took your heart and he threw it away
             D7 G 
It makes me so mad to see you so sad, baby

 G G7 C      / B  / Bb 
I tried to tell you what he was but you would not listen
        A  
Oh the lies in his eyes, in his eyes, how they could glisten,  you would not listen

He walked in to your life one day...


I tried to tell you…

The Woman Makes The Man chords – Lady Antebellum

 Lady Antebellum- The Woman Makes the Man

Find it on Youtube, there is not a Hardcopy of the track. I Found it on Youtube the Link is below




Please leave a comment if you find any mistakes or any lyrics are wrong. :)
And also comment if you may not understand something, I think I made it easy to read. THANKS. and enjoy :)

NO CAPO

(Intro)    

 F Dm C Bb  (only once)  

                F C 
Im all busted aces and empty pockets
           Dm                        B♭
An arrow shot straight through a locket
                     F C 
In this cheap hotel room on this lonesome highway
              Dm                           B♭
Everything I own in this tattered old suitcase
          Gm C 
But you know I havent always been this way

(Chorus)
 Gm Gm 
I used to be a hero, and a lover
 C 
She brought out the best in me
 Gm Gm 
But now Im just lonesome with a broken heart
 C 
Half the man I used to be
                 Dm C              B♭          Gm 
It took losing her, for me to finally understand
            Gm C            B♭
That the woman really makes the man


                  F                            
She was like an angel
                     C 
Sweet tooth little Honey
                 Dm                       B♭
Every move she made was right on the money
                      F 
But I took her for granted
                                C                       
Cause I thought I always hold her 
                Dm                               B♭
And she bought into everyone line that I sold her
                      Gm 
Oh but I threw it all away
                             C 
Oh why did I throw it all away?

(Chorus)
 Gm Gm 
I used to be a hero, and a lover
 C 
She brought out the best in me
 Gm Gm 
But now Im just lonesome with a broken heart
 C 
Half the man I used to be
              Dm C              B♭          Gm 
It took losing her, for me to finally understand
            Gm C            B♭
That the woman really makes the man

(Bridge)

               Gm    
Well this face staring back at me in this mirror
              C 
Aint the face I wanna see
       Gm Gm 
Gotta figure out how to get back
      C C# 
To who I used to be
 Dm C 
Oh yeah, oh


(Chorus)
 Gm Gm 
I used to be a hero, and a lover
 C 
She brought out the best in me
 Gm Gm 
But now Im just lonesome with a broken heart
 C 
Half the man I used to be
              Dm C              B♭          Gm 
It took losing her, for me to finally understand
            Gm C            B♭
That the woman really makes the man
             B♭         Gm F 
Yes the woman really makes the man

(Outro)
 F Dm C    B♭        

 F     (END)

Hope your Enjoyed!

Comment if there are any other chord music which you would like me to write out!!! :)

A Moments Rest chords – The Devil Makes Three

 The Devil Makes Three - A Moment's Rest

 C F C 
Lord, I got a heart full of hatred 
 C F G 
For me there sure ain't no cure 
 C F C 
I wake up and I'm running 
         G C  
I don't know what I'm running for 

 C F C 
Lord, I got a head full of worry
 C F G 
Why that is, I've never known 
 C F C 
I can go back where I came from 
     G C  
But I ain't ever going home 


 D G F C 
All this talking does not hold the answers to this life 
 D G F G 
All you get is a moment's rest from what haunts you deep inside 
                     C G Am G D G C G C Am G 
Is that good enough tonight, is that good enough tonight


 C F C 
Lord, I got eyes full of fire
 C F G 
They can burn off the rain 
 C F C 
But I gotta swim to the bottom 
         G C  
Just to keep from busting into flame


 D G F C 
Oh, that bottle does not hold the answers to this life 
 D G F G 
All you get is a moment's rest from what haunts you deep inside 
                     C G Am G D G C G C Am G 
Is that good enough tonight, hope that's good enough tonight


 C F C 
Lord, I got a heart full of hatred 
 C F G 
For me there sure ain't no cure 
 C F C 
I wake up and I'm running 
         G C  
I don't know what I'm running for 

Goodbye Old Friend chords – The Devil Makes Three

 The Devil Makes Three - Goodbye Old Friend

   C Am 
I need you and I want you 'cause I know you from before
   F G 
I hate you and I fear you but I hold open the door
   C Am 
I see you and you see me and we know what must be done
       F G 
So we draw knives and lock eyes 'cause it does no good to run


 C Am 
Goodbye old friend, farewell it seems
 F G 
We'll dance again in my dreams
 C Am 
Goodbye old friend, farewell it seems
 F G 
We'll dance again in my dreams


   C Am 
I've missed you, you know that's true and I've retraced every scar
    F G 
My head sings and the steel rings 'cause we've traveled, oh so far
   C Am 
I chased you to embrace you like the sun chases the moon
   F G 
I burn you and you burn me but I know I'll see you soon


 C Am 
Goodbye old friend, farewell it seems
 F G 
We'll dance again in my dreams
 C Am 
Goodbye old friend, farewell it seems
 F G 
We'll dance again in my dreams


      C Am 
I've watched you and I've seen you and known that you were there
      F G 
I've held and you've loved me but our lives cannot be spared
   C Am 
I trust you and despised you, shadowed your every move
 F G 
Scorned you and warned you, befriended everyone you've used


 C Am 
Goodbye old friend, farewell it seems
 F G 
We'll dance again in my dreams
 C Am 
Goodbye old friend, farewell it seems
 F G 
We'll dance again in my dreams

Thats What Makes The World Go Round Tabs by Sherman And Sherman

 SONG: That’s What Makes The World Go Round
ARTIST: Karl Swenson
COMPOSER(S): Richard & Robert Sherman
FROM THE FILM SOUNDTRACK: The Sword In The Stone
YEAR: 1963

Hello everybody. I thought I might upload a song from one of Walt Disney's under-rated 
films, The Sword In The Stone.
Sword In The Stone is one of my personal childhood favorites. The songs was written by 
the Sherman brothers, who also wrote the songs for The Jungle Book, Mary Poppins and The 
Aristocats, oh and MGM's Chitty Chitty Bang Bang.
I'll start with the tab first, then the lyrics with the chords. The song uses the key of 
C. It should be quite easy to play.

This is the tab:
   C                                           F
E|-----------------|-----------------|-----------------|-----------------|
B|-----5-----------|-----5-----------|-----5-----------|-5---------------|
G|-5---------------|-5---------------|-5-------7-----5-|-----7-----------|
D|---------5-------|---------5-------|-----------------|---------5-------|
A|-----------------|-----------------|-----------------|-----------------|
E|-----------------|-----------------|-----------------|-----------------|
   1   2   3   4     1   2   3   4     1   2   3   4     1   2   3   4

   G                                                             C
E|-----------------|-----------------|-----------------|-----------------|
B|-----3-----------|-----3-----------|-3---6---5-----3-|-6---5-----------|
G|-4---------------|-4---------------|-----------------|---------5-------|
D|---------5-------|---------5-------|-----------------|-----------------|
A|-----------------|-----------------|-----------------|-----------------|
E|-----------------|-----------------|-----------------|-----------------|
   1   2   3   4     1   2   3   4     1   2   3   4     1   2   3   4

   Em                        F         G                         C
E|-5---5---7-------|---------5-------|-----5-----------|-----------------|
B|---------------8-|-8---8---------5-|-6-------8-----6-|-6-------------5-|
G|-----------------|-----------------|-----------------|-----9---7-------|
D|-----------------|-----------------|-----------------|-----------------|
A|-----------------|-----------------|-----------------|-----------------|
E|-----------------|-----------------|-----------------|-----------------|
   1   2   3   4     1   2   3   4     1   2   3   4     1   2   3   4

   Dm                                  G                 F
E|---------10--10--|-10--10----------|-10--8---7-------|-----------------|
B|-8---8-----------|-----------------|-------------10--|-8---7---5---3---|
G|-----------------|---------7-------|-----------------|-----------------|
D|-----------------|-----------------|-----------------|-----------------|
A|-----------------|-----------------|-----------------|-----------------|
E|-----------------|-----------------|-----------------|-----------------|
   1   2   3   4     1   2   3   4     1   2   3   4     1   2   3   4

(repeat this section 4 times)

Then:
   C                                           F
E|-----------------|-----------------|-----------------|-----------------|
B|-----5-----------|-----5-----------|-----5-----------|-5---------------|
G|-5---------------|-5---------------|-5-------7-----5-|-----7-----------|
D|---------5-------|---------5-------|-----------------|---------5-------|
A|-----------------|-----------------|-----------------|-----------------|
E|-----------------|-----------------|-----------------|-----------------|
   1   2   3   4     1   2   3   4     1   2   3   4     1   2   3   4

   G                                                             C
E|-----------------|-----------------|-----------------|-----------------|
B|-----3-----------|-----3-----------|-3---6---5-----3-|-6---5-----------|
G|-4---------------|-4---------------|-----------------|---------5-------|
D|---------5-------|---------5-------|---

Spinning Like A Top chords – The Devil Makes Three

 ----------------------------------------------------------------------------
                    Spinning Like A Top - The Devil Makes Three
----------------------------------------------------------------------------

: dannis27
Tuning: Standard

Artist: The Devil Makes Three
 I'm A Stranger Here
Year: 2013

Capo 2

Intro:  D  /  A  /  D  /  G  /  A  /  D 

[Verse:]
 D A 
When I was a rover, met a four leaf clover, she was Irish as the day was long
 D G A D 
I thought she'd give it to me maybe, now she's married with a baby, I've been dodging 
bullets all along
 D A 
Man, we would creep but never lost no sleep, I would cut catnip into the weed,
 D G A D 
Nobody was the wiser but they could have been higher and it meant more money for me

[Chorus:]
              G G D A 
Here's to not getting caught, doctor it's only a graze
 D G A D A 
Spinning like a top, running like a villain and the years are going by like days
 G A D 
The years are going by like days
 D A G A D 
Days, the years are going by like days

[Verse:]
 D A 
School bus, I got on it, I was nearly catatonic, I couldn't speak a goddamn word
 D G A D 
Homeroom class, forge a hall pass and we would get higher than the birds
 D A 
My foolish nature, the chase for the paper, I would deal in the broad daylight
 D 
18 years old, head full of psilocybin and howling at the moon all night

[Chorus]

[Bridge:]
 G D 
Small town shadows, clean out of sight,
 D A 
nothing to fear but the coming of that morning light
 G D Bm 
Ducking and dodging and diving for that rent,
                   G A D 
if it couldn't be broken, it could be bent

[Solo:]  D  /  A  /  D  /  G  /  A  /  D 

[Verse:]
 D A 
I was washing dishes, stealing kisses, making our deals on the side
 D G A D 
She said are you ready honey, 'cause we got gas money and we're going on a long long ride
 D A 
Lying like a rug, prescription drugs, old guitars, new girlfriends
 D G A D 
Everybody shunned me, I just thought that it was funny and I'd do it all over again

[Chorus:]
                G G D A 
Here's to never getting caught, doctor it's only a graze
 D G A D 
Spinning like a top, running like a villain and the years are going by like days
 D G A D A 
Spinning like a top, running like a villain and the years are going by like days
 G A D 
The years are going by like days
 D A G A D 
Days, the years are going by like days

The Bullet chords – The Devil Makes Three V2

 THE BULLET - DEVIL MAKES THREE


Intro/Verse :  Am G Am G Am   

Chorus :  Am C Am Dm  +  Am C D E Am G Am G Am Am G Am G Am 
Well he opened up his shop at the age of nineteen
 Am G Am G Am 
Stealing anything the eye could see
 Am G Am G Am 
Said gather round, you people, anything you need
 Am G           
I'll keep my name on your lips
             Am G Am 
And put the word out on the street

Chorus

    Am C Am Dm 
And I will ride til my fingers, they are down to the bone
 Am C Am Dm 
Wander til I can't remember my own home
 Am C Am Dm 
Drink til I don't know the meaning of alone
          Am E Am 
Until that bullet flies to carry me home


            Am C 
'til that bullet flies that bullet flies that bullet flies
                        D E Am 
That bullet flies that bullet flies to carry me home
            Am C 
'til that bullet flies that bullet flies that bullet flies
                        D E Am 
That bullet flies that bullet flies to carry me home



 Am G Am G Am 
Well he never, ever smiled but he always seemed pleased
 Am G Am G Am 
Said I'll never live down upon my bended knees
 Am G Am G Am 
Said I see the game and the game, it sees me
 Am E Am 
And we will dance until they bury me

Solo

 Am G Am G Am 
So I will rise like the ashes from a building as it burns
 Am G Am G Am 
Screaming at my enemies you'll all have your turn
 Am G Am G Am 
The more pain I feel, the less that it hurts
 Am G Am G Am 
The more I move on, the more I am sure


    Am C Am Dm 
That I will ride til my fingers, they are down to the bone
 Am C Am Dm 
Wander til I can't remember my own home
 Am C Am Dm 
Drink til I don't know the meaning of alone
          Am E Am 
Until that bullet flies to carry me home


            Am C 
'til that bullet flies that bullet flies that bullet flies
                        D E Am 
That bullet flies that bullet flies to carry me home
            Am C 
'til that bullet flies that bullet flies that bullet flies
                        D E Am 
That bullet flies that bullet flies to carry me home

Hallelu chords – The Devil Makes Three

 Hallelu - The Devil Makes Three
: Taylor Sansom


Intro/Verse/Break:  D - D - D - A D - G - A - D 
Chorus:  G - D - D - A D - G - A - D D 
Nothing is wrong here so I'm climbing up the walls
 D A 
Trying to kill this silence with gun blasts and alcohol
           D G 
I've been laughing, I've been crying, I've been living, I've been dying
          A D 
They say tell the truth, they're lying, Hallelu

[Chorus:]
     G D A 
Hallelu, Hallelu, praise the lord and pass the ammunition too
     D G 
They say Jesus is coming, he must be walking, he sure ain't running
             A D 
Who can blame him, look how we done him, Hallelu

 D 
What will it take to have this place on bended knee
 D A 
You run to the forest, you can bet I'll burn the trees
 D G 
I will poison the water 'cause it's only getting hotter
        A D 
And we came for sons and daughters, Hallelu

[Chorus]

[Break]

 D 
Trials and tribulations, that's just bread and wine
 D A 
Getting my hands dirty, that does not take off the shine
         D G 
On this farm to get your filling, there's got to be a little killing
         A D 
So I am ready and I'm willing, Hallelu

[Chorus]

          G D 
If you're waiting on salvation you'll need candles and libations
             A D 
Train ain't coming in the station, Hallelu

      G D 
They say Jesus is coming, he must be walking, he sure ain't running
         A D 
Who can blame him, look how we done him, Hallelu

     G D A D 
Hallelu, Hallelu, Hallelu, Hallelu