Tag: man

A Worried Man chords by The Kingston Trio

[Intro]
D    G  D    A  D

[Chorus]
   D
It takes a worried man to sing a worried song
   G                      D
It takes a worried man to sing a worried song
   D                                     Bm
It takes a worried man to sing a worried song
            Em         A                D
I'm worried now, but I won't be worried long

[Verse]
D
Got myself a Cadillac, thirty dollars down
G                             D
Got myself a brand new house, five miles out of town
D
Got myself a gal named Sue, treats me really fine
              A                           D
Yes, she's my baby and I love her all the time

[Chorus]
   D
It takes a worried, worried man to sing a worried, worried song
   G                               D
It takes a worried, worried man to sing a worried, worried song
   D                                     Bm
It takes a worried man to sing a worried song
            Em         A                D
I'm worried now, but I won't be worried long

[Verse]
D
I've been away on a business trip, travelin' all around
G                                D
I got a gal and her name is Sue, prettiest gal in town
D
She sets my mind to worryin' every time I'm gone
               A                            D
I'll be home tonight, so I won't be worried long

[Chorus]
   D
It takes a worried man to sing a worried song
G                         D
It takes a worried man to sing a worried song
D                                        Bm
It takes a worried man to sing a worried song
            Em         A                D
I'm worried now, but I won't be worried long

[Verse]
D
Well, Bob is in the livin' room holdin' hands with Sue
G                               D
Nicky's at that big front door, vowin' to come on through
D
Well, I'm here in the closet, oh lord, what shall I do
              A                            D
We're worried now, but we won't be worried long

[Chorus]
   D
It takes a worried man to sing a worried song
   G                      D
It takes a worried man to sing a worried song
   D                                     Bm
It takes a worried man to sing a worried song
            Em         A                D
I'm worried now, but I won't be worried long

Man Of War chords by Radiohead

Verse             Chorus
-------------     ------------
Am     x0221x     C     x32010
Adim   x0121x     C/B   x22010
Asus4  x0021x     Am7   x02010
                  C/G   332010
                  D/F#  2x0232
                  F     133211






[Intro]


    Am                    Adim                  Asus4                 Adim
e|----------7p5--------|----------7p5--------|----------7p5--------|----------7p5--------|
B|----5---5-------5----|----4---4-------4----|----3---3-------3----|----4---4-------4----|
G|--5---5-------5---5--|--5---5-------5---5--|--5---5-------5---5--|--5---5-------5---5--|
D|---------------------|---------------------|---------------------|---------------------| x3
A|---------------------|---------------------|---------------------|---------------------|
E|---------------------|---------------------|---------------------|---------------------|
p = pull-off


[Verse 1]
Am                    Adim
   Drift all you like
               Asus4
From ocean to ocean 
Adim               Am
Search the whole world
                   Adim
But drunken confessions
                Asus4
And hijacked affairs
          Adim           Am   Adim  Asus4  Adim
Will just make you more alone


[Verse 2]
Am                    Adim
   When you come home
                     Asus4
I’ll bake you a cake
Adim               Am
Made of all their eyes
                     Adim
I wish you could see me
                     Asus4
Dressed for the kill


[Chorus 1]

Adim              Am  Adim  Asus4  
You’re my man of war
Adim              Am  Adim  Asus4  
You’re my man of war
         C     C/B  Am7  C/G   
Yeah the worms will come     
     D/F#  F
For your
     D/F#  F
Big boots


(Chorus riff 1: lead guitar after each “man of war” above and at end of chorus:)

    Am                      Adim                    Asus4                   Adim
e|-----0-----------------|-----0-----------------|-----0-----------------|-----------------------|
B|-----1---1-3-1--0---1--|-----1---1-3-1--0---1--|-----1---1-3-1--0---1--|--1-0------------------|
G|--2--2------------2----|--2--2------------2----|--2--2------------2----|-------2-0-------------|
D|--2--2-----------------|--1--1-----------------|--0--0-----------------|------------2p0--------|
A|--0--------------------|--0--------------------|--0--------------------|----------------3p2-0--|
E|-----------------------|-----------------------|-----------------------|-----------------------|
p = pull-off


(Chorus riff 2: lead guitar after “For your” and “Big boots” above:)

    D/F#                                       F
e|--12b14br12-10----------------------------|--------------------------------------12--|
B|----------------12b14br12-10------10--12—-|--12b13br12--12b13br12—12b13br12--10------|
G|------------------------------11----------|------------------------------------------|
D|------------------------------------------|------------------------------------------| x2
A|------------------------------------------|------------------------------------------|
E|------------------------------------------|------------------------------------------|
b  = bend up
br = bend-release


[Verse 3]
Am                      Adim
   So unplug the phones
              Asus4
Stop all the taps
   Adim                Am
It all comes flooding back
                     Adim
From poisonous cloud
              Asus4
To poisoned dwarf


[Chorus 2]

Adim              Am  Adim  Asus4  
You’re my man of war
Adim              Am  Adim  Asus4  
You’re my man of war
         C     C/B  Am7  C/G   
Yeah the worms will come     
     D/F#  F
For your
     D/F#  F
Big boots


[Outro]
         C     C/B  Am7  C/G   
Yeah the worms will come     
     D/F#  F
For your
     D/F#  F
Big boots
     D/F#  F
For your
     D/F#  F
Big boots

Kung Siya Man chords by Tj Monterde ver 2

[Verse 1]
   G                D/F#
nakapili na ba ka?
          Em7            C9
kung kinsa sa among duha
    G                    D/F#
ang pilion mong makauban
          Em7            C9
ug ipaila-ila's ginikanan

[Refrain]
  Am              Bm
gihatag ko na ang tanan
  Am              Bm
ug ihatag ko pa ang tanan
C       Dsus  D
apan~~

[Chorus]
        G            Em7
kung siya man ang mapilian
       Bm                 C
wa koy mahimo ana pero sakit lang gyud kaayo
         G           Em7
kung siya man ang maswertehan
       Bm                  C
mupalayo nako ninyo ug ihilak nalang sa tago
     Am                     Bm
pero ug iya kang b'yaan ug iyang binuangan
        C   D
pag mahitabo wala na siya'y balikan

[Instrumental]
G-C-G-C

[Verse 2]
           G              D/F#
kung pananglitang sa iya
          Em7        C9
gyud mas giganahan ka
             G               D/F#
maghulat lang ko diring dapita
          Em7           C9
basin diay ug mubalik ka

[Refrain]
  Am              Bm
gihatag ko na ang tanan
  Am                Bm
ug ihatag ko pa ang tanan
Am Bm C D
apan~~

[Chorus]
        G          Em7
kung siya man ang mapilian
       Bm                  C
wa koy mahimo ana pero sakit lang gyud kaayo
        G          Em7
kung siya man ang maswertehan
       Bm                  C
mupalayo nako ninyo ug ihilak nalang sa tago
     Am                    Bm
pero ug iya kang b'yaan ug iyang binuangan
     C      D
pag mahitabo 

[Bridge]
    Em                 D
ang reyna sakong damgo tuas laing palasyo
    C               F
ug iya kang biyaan lingi diri
    C             D
kay ako kang pakaslan

[Chorus]
         G          Em
kung ikaw man ang magustuhan
        Bm              C
wa koy mahimo ana pero ampingi siya palihog ko
       G          Em
sa imo man siya maganahan
    Bm                  C
mupalayo nako ninyo ug hatagan tamog respeto
       Am                        Bm
hangyo lang a'y s'yag pasakiti ug ayaw gyud siya biyai
             Am                    C        D
ug imong syang sayangan buhaton ko ang tanan

[Outro]
N.C.
wala na kay balikan
Suggest correction

New Man Piano Chords by Ed Sheeran

[Intro]
Em G D/F# Em | C Bm D Em

[Verse 1]
N.C.                     Em    G
I heard he spent five hundred pounds on jeans
D/F#                     Em
Goes to the gym at least six times a week
C                     Bm
Wears both shoes with no socks on his feet
      D                            Em
And I hear he’s on a new diet and watches what he eats
             Em                       G
He’s got his eyebrows plucked and his asshole bleached
     D/F#                  Em
Owns every single Ministry CD
C                           Bm
Tribal tattoos and he don’t know what it means
      D                                   Em
But I heard he makes you happy, so that’s fine by me
    Em               G
But still, I’m just keepin’ it real
      D/F#                                   Em
Still lookin’ at your Instagram and I’ll be creepin’ a lil’
        C                       Bm
I’ll be tryin’ not to double tap, from way back
         D                                 Em
‘Cause I know that’s where the trouble’s at, let me remind you of the days when
            G        
You used to hold my hand
            D/F#                     Em
And when we sipped champagne out of cider cans
            C                            Bm
I guess if you were Louis Lane, I wasn’t Superman
        D                       Em
Just a young boy tryin’ to be loved

So let me give it to ya


[Chorus]
Em                   G                D/F#
I don’t wanna know about your new man
                 Em
‘Cause if it was meant to be
     C                     Bm
You wouldn’t be callin’ me up tryin’ to
           D                             Em
‘Cause I’m positive that he don’t wanna know about me
Em                   G                D/F#
I don’t wanna know about your new man
                 Em
We’ll get there eventually
C                          Bm
I know you’re missin’ all this kind of love
         D                            Em
But I’m positive that he don’t wanna know about me


[Verse 2]
N.C.                G
Your new man rents a house in the ‘burb
           D/F#                            Em
And wears a man bag on his shoulder, but I call it a purse
      C                         Bm
Every year, he goes to Málaga with all the fellas
        D                             Em
Drinks beer, but has a six pack, I’m kinda jealous

         Em                      G     
He wears sunglasses indoors, in winter, at nighttime
     D/F#                       Em
And every time a rap song comes on, he makes a gang sign
C                   Bm
Says, “Chune! Boydem light up the room,"
     D                            Em
But enough about him, girl, let’s talk about you

              Em                              G
You were the type of girl who sat beside the water readin’
          D/F#                         Em
Eatin’ a packet of crisp, but you will never find you cheatin’
           C                        Bm
Now you’re eatin’ kale, hittin’ the gym
                          D
Keepin’ up with Kylie and Kim
                    Em
In the back of the club, kissin’ a boy that ain’t him
N.C.             G
Okay, you need to be alone
           D/F#                         Em
And if you wanna talk about it, you can call my phone
       C                                Bm
I just thought I would tell you, ’cause you oughta know
               D                        Em
You’re still a young girl tryin’ to be loved

So let me give it to ya


[Chorus]
Em                   G                D/F#
I don’t wanna know about your new man
                 Em
‘Cause if it was meant to be
     C                     Bm
You wouldn’t be callin’ me up tryin’ to
           D                             Em
‘Cause I’m positive that he don’t wanna know about me
Em                   G                D/F#
I don’t wanna know about your new man
                 Em
We’ll get there eventually
C                          Bm
I know you’re missin’ all this kind of love
         D                            Em
But I’m positive that he don’t wanna know about me


[Bridge]
  Em          G                   D/F#
Baby, I’m not tryin’ to ruin your week
     Em                 C
But you act so differently
Bm                      D           Em
When you’re with him, I know you’re lonely
Em       G                    D/F#
Please remember you’re still free
Em                      C
To make the choice and leave
Bm                     D       Em                    
Don’t call me up, you need to show me


[Chorus]
Em                   G                D/F#
I don’t wanna know about your new man
                 Em
‘Cause if it was meant to be
     C                     Bm
You wouldn’t be callin’ me up tryin’ to
           D                             Em
‘Cause I’m positive that he don’t wanna know about me
Em                   G                D/F#
I don’t wanna know about your new man
                 Em
We’ll get there eventually
C                          Bm
I know you’re missin’ all this kind of love
         D                            Em
But I’m positive that he don’t wanna know about me


Em G D/F# Em | C Bm D Em

Still Feel Like Your Man Piano Chords by John Mayer

[Intro]
GM7
I still feel like your man (Ohhh oh oh)
GM7
I still feel like your man (Eww ew ew)
GM7
I still feel (I still feel) 
A
I still feel like your man

DM7 A7sus4
DM7 A7sus4
[Verse]
DM7                                      A7sus4
The prettiest girl in the room she wants me
                   DM7        A7sus4 
I know because she told me so
DM7               A7sus4 
She says come over I'd like to get to know you
      DM7                    A7sus4 
But I just don't think I can

[Chorus]
         Em7                     A7sus4 A7
'Cause I still feel like your man
DM7                     F#7        
Still feel like your man
Em7                       A7sus4 A7
I still feel like your man
F#7
Still feel like your man
Bm      A
I still feel like your man

[Break]
[Verse]
A6                              A7sus4  
I still keep your shampoo in my shower
            A6                   A7sus4 
In case you wanna wash your hair
A6                                          A7sus4 
And I know that you probably found yourself someone somewhere
A6                        A7sus4 
But I do not really care 'cause as long as it is there

[Chorus]
         Em7                     A7sus4 A7
'Cause I still feel like your man
DM7                     F#7        
Still feel like your man
  Em7                     Asus4 A7
I still feel like your man
F#7
Still feel like your man
Bm      A
I still feel like your man

[Bridge]
     Bb6
Your man... (Ever since the day we met)
F6                                               Bb6
Still like the letters in your name and how they feel, babe
F6                                       Bb6
Still think I'm never gonna find another you
F6                                          A
Still like to leave the party early and go home, babe
A
And don't you know, babe
A
I'd rather sit here on my own and be alone, babe

[Chorus]
         Em7                      Asus4 A7
'Cause I still feel like your man
DM7                     F#7        
Still feel like your man
  Em7                     Asus4 A7
I still feel like your man
F#7
Still feel like your man
  Em7                     Asus4 A7
I still feel like your man
DM7                     F#7
Still feel like your man
  Em7                     Asus4 A7
I still feel like your man
F#7
Still feel like your man

[Outro]
DM7               A7sus4 
I still feel like
DM7               A7sus4 
I still feel like
DM7               A7sus4 
I still feel like
DM7                       A7sus4     
I still feel, I still feel

DM7 A7sus4 
DM7 A7sus4 
DM7 A7sus4 
DM7 A7sus4

When I Was Your Man chords by Bruno Mars

[Intro]

D7 Dm CÂ

D7 Dm C G/B

[Verse 1]

Am       C           Dm

Same bed, but it feels just a little bit bigger now

GÂ Â Â Â Â Â Â G7Â Â Â Â Â Â Â Â Â CÂ Â Â Â Â Â Â Em/B

Our song on the radio, but it don’t sound the same

Am          C              Dm

When our friends talk about you all it does is just tear me down

GÂ Â Â Â Â Â Â Â Â Â Â Â Â Â Â Â Â Â C

Cause my heart breaks a little when I hear your name

[Refrain]

  Em         Am       Em

It all just sounds like ooh, ooh, oooh, oooh

Bb              C/GÂ

Mmm too young, too dumb to realize

[Chorus]

   G           F   G       C

That I should’ve bought you flowers and held your hand

            F  G     C

Shoulda gave you all my hours when I had the chance

         F         G        Am Â

Take you to every party cause all you wanted to do was dance

D7      F         Fm         C  FC Em/B

Now my baby’s dancing, but she’s dancing with another man

[Verse 2]

Am     C          Dm

My pride, my ego, my needs and my selfish ways

GÂ Â Â Â Â Â Â Â Â Â G7Â Â Â Â Â Â Â Â Â Â CÂ Â Â Â Â Em/B

Caused a good strong woman like you to walk out my life

     Am  C            Dm

Now I’ll never, never get to clean up the mess I made ooh

GÂ Â Â Â Â Â Â Â Â Â Â Â Â Â Â Â Â Â C

And that haunts me every time I close my eyes

[Refrain]

  Em/B        Am       Em

It all just sounds like ooh, ooh, oooh, oooh

Bb              C/GÂ

Mmm too young, too dumb to realize

[Chorus]

   G           F   G       C

That I should’ve bought you flowers and held your hand

            F  G     C

Shoulda gave you all my hours when I had the chance

         F         G        Am Â

Take you to every party cause all you wanted to do was dance

D7      F         Fm         C Â

Now my baby’s dancing, but she’s dancing with another man

[Bridge]

      F        G           CG/BAmEm/G

Although it hurts I’ll be the first to say that I was wrong

   D7

Oh, I know I’m probably much too late

      Dm

To try and apologize for my mistakes

      G

But I just want you to know

[Chorus]

          F   G           C

I hope he buys you flowers, I hope he holds your hand

         F  G     C

Give you all his hours when he has the chance

         F      G          Am Â

Take you to every party cause I remember how much you love to dance

D7         F      Fm       C       Â

Do all the things I should’ve done when I was your man

D7         F      Fm       C

Do all the things I should’ve done when I was your man

Man In The Night Tabs – Kid Cudi

 -------------------------------------------------------------------------------
                             Kid Cudi - Man in the night
-------------------------------------------------------------------------------
: gautierfontaine
 Gautier.fontaine@free.fr

Man in the night - Speedin' bullet to heaven

Tuning:

e|---------------------------------------------------------------------------|
B|---------------------------------------------------------------------------|
G|---------------------------------------------------------------------------|
D|---------------------------------------------------------------------------|
A|-4-4-4-4-/-14-14-14-14-\-4-4-4-4-/-14-14-14-14-----------------------------|
E|-2-2-2-2-/-12-12-12-12-\-2-2-2-2-/-12-12-12-12-----------------------------|

Before the refrain :

e|---------------------------------------------------------------------------|
B|---------------------------------------------------------------------------|
G|---------------------------------------------------------------------------|
D|---------------------------------------------------------------------------|
A|-4-4--5-5------------------------------------------------------------------|
E|-2-2--3-3------------------------------------------------------------------|


************************************

/   slide up
\   slide down

Good Timin Man Tabs – Whitey Morgan and the 78s

 http://whiteymorgan.com

-------------------------------------------------------------------------------
        Good Timin' Man - Whitey Morgan and the 78's
-------------------------------------------------------------------------------
Tuning: Standard 


There aren't many tabs for this band on here, and I figured I try one. This is my first attempt at 
transcribing anything, so any suggestions are greatly appreciated. Thank you.

P.S. I have Am in the chorus, but I don't think it's what is played, but it's the only thing I could get
to sound even remotely close.


Intro:

    C                          F                        C
e|---------------------------------1-----------1------------------------------|
B|------1---1---------1---1----------1---1-------1---1------1---1-------------|
G|--------0---0---------0---0----x-----2-----2-----2----------0---0-----------|
D|----2-------------2----------3-----------3--------------2-------------------|
A|--3-------------3-------------------------------------3---------------------|
E|----------------------------------------------------------------------------|
    G           C
e|------3-------------------0-------------------------------------------------|
B|--------0---0-----1-------1-------------------------------------------------|
G|----------0-------------0-0-------------------------------------------------|
D|----0-----------2---0h2-----------------------------------------------------|
A|--------------3-------------------------------------------------------------|
E|--3-------------------------------------------------------------------------|

Verses:

Three nights in old Arizona 
    C                        F
e|-------------------------------1-----1---------1----------------------------|
B|------1---1-------1---1----------1-----1---------1--------------------------|
G|--------0---0-------0---0----2-----2---------------2------------------------|
D|----2-----------2----------3----------------3-------------------------------|
A|--3-----------3-------------------------------------------------------------|
E|----------------------------------------------------------------------------|

Gotta get me outta California
    C                        F
e|-------------------------------1------------1--------------------------------|
B|------1---1-------1---1----------1---1--------1---1--------------------------|
G|--------0---0-------0---0----2-----2------2-----2----------------------------|
D|----2-----------2----------3------------3------------------------------------|
A|--3-----------3--------------------------------------------------------------|
E|-----------------------------------------------------------------------------|

Yea she's        waitin' there for me
    C             G               C
e|--------------------3-------------------------------------------------------|
B|------1---1-----------0---0----------1---1----------------------------------|
G|--------0---0-----------0--------------0---0--------------------------------|
D|----2-------------0----------------2----------------------------------------|
A|--3------------------------------3------------------------------------------|
E|----------------3-----------------------------------------------------------|
   C                       G            C
e|------------------------------3--------------------0------------------------|
B|------1---1-------1---1---------0---0------1-------1------------------------|
G|--------0---0-------0---0---------0--------------0-0------------------------|
D|----2-----------2-----------0------------2---0h2----------------------------|
A|--3-----------3------------------------3------------------------------------|
E|--------------------------3-------------------------------------------------|

Feelin' wrong but I'll get right
    C                          F
e|-----------------------------1----1------------1------------------------------|
B|--1----1---1-------1---1-----1------1---1-------

Hillbilly Man Tabs – Gorillaz Vsion 1

 -------------------------------------------------------------------------------
                          HILLBILLY MAN - Gorillaz
-------------------------------------------------------------------------------
: Seismatters

Tuning: Standard E A D G B E


INTRO + FIRST HALF OF SONG (ends with 'Three lanes full')

e|-----------------6--4--3------------------------6---3---6---3--------------|
B|-4--4---6---4-6--4--------6--4--4--4---6---4-6--4--------------------------|
G|-5--5---5--------3--------------5--5---5--------3--------------------------|
D|-3--3---3--------5--------------3--3---3--------5--------------------------|
A|---------------------------------------------------------------------------|
E|---------------------------------------------------------------------------|


SECOND HALF OF SONG (starts with 'Got a ride in my heart')

e|---------------------------------------------------------------------------|
B|---------------------------------------------------------------------------|
G|-0--0----0--1-1-1----0--0----0--3-3-3--------------------------------------|
D|-1--1----1--3-3-3----1--1----1--5-5-5--------------------------------------|
A|-3--3----3--3-3-3----3--3----3--5-5-5--------------------------------------|
E|---------------------------------------------------------------------------|

Man In The Middle chords – Donnie Howe

 Man in the Middle

Intro  A E D A A E D A 
There was a mountain and there were three trees
 D A Bm E 
There was a good man and there were two thieves
 A E D A 
A man called Barabbas was doomed for the tree
       D A D A D 
But Jesus took the middle one and Barabbas went free


     A E D Bm 
I love that man in the middle
     E D A D 
Because I know he first loved me
   A E D A 
Praise to that man who died on Mount Calvary
      D A D A 
The middle man made it possible that I could go free


 A E D A 
A hill called Golgotha the place of a skull
 D A Bm E 
No yellow flowers, no trees in bloom the scenery was so dull
 A E D A 
Three crosses stood black and bold against a darkened sky
  D A D A 
If not from pain but a broken heart that middle man died


    A E D Bm 
I love that man in the middle
     E D A D 
Because I know he first loved me
   A E D A 
Praise to that man who died on Mount Calvary
      D A D A 
The middle man made it possible that I could go free

    A E D Bm 
I love that man in the middle
     E D A D 
Because I know he first loved me
   A E D A 
Praise to that man who died on Mount Calvary
      D A D A 
The middle man made it possible that I could go free


  A E D A 
Praise to that man who died on Mount Calvary
      D A D A 
The middle man made it possible that I could go free


Hound Dog Man chords – Roy Orbison Vsion 2

 Hound Dog Man 
Roy Orbison
1979 song about Elvis

Intro  A D A E F#m E A E A D A 
Hey, hound dog man
 E F#m E A E 
Where you been now, where you been?
 A D A    
I wish that you were back
 E F#m E A 
you was too good to ever end
           D A 
Once in a while someone like you
      E F#m E D 
Will give everything for what they want to do

 A D A 
Hey, hound dog man
 E F#m E A 
My old friend, play it again

 A D A 
You gave the world a whole lot of joy
     E F#m E A 
Now that ain't bad for a country boy
 E A D A 
I just knew you could not lose
     E F#m E A 
The way you sang rock and roll and blues
          D A 
I still think about these things
 E F#m E D 
And the memory that it brings

 A D A 
Hey, hound dog man
 E F#m E A 
My old friend, play it again
      D A 
Hey, hound dog man,
 E F#m E A 
My old friend, play it again

riff   D A E F#m E A D A E F#m E A E A D A 
Sometimes I think about James Dean
 E F#m E A 
Sammy Cooke and my teenage queen
 A       
Doo ron, de ron, de ron
         F#m E D 
Marilyn Monroe and hot rod fun
 A D A 
I still think about these things
 E F#m E D 
And the memory that it brings

 A D A 
Hey, hound dog man
 E F#m E A E 
My old friend, play it again
 A D A 
Hey, hound dog man
 E F#m E A           
My old friend, why did it end?
      D A 
Hey, hound dog man
 E F#m E A 
My old friend, why did it end?

 D A E F#m E A D  AE  F#m E  fade

flyinglibra51
God Bless Glen Travis Campbell

Fate Of Man chords – Glen Campbell

 Fate of Man
Glen Campbell
written by Glen Travis Campbell
album Wichita Lineman


Chorus 1

( Sung )
 C G Am D7 
Pity a man, for he don't know, the trouble he'll pass 
       G 
going down life's road

Verse 1

( Recitative )

 G C 
When a man is one and twenty, he thinks he knows it all; 
             D7 G 
He can't see down the road of life where he'll ever fall.
                         C Am       
But fall he will, as he travels through life. With all it's
           D7          
pitfalls, troubles and strife.
 G C D7 
Now, at fifty, he's going real strong. He has him a family
      G C 
and a nice little home; But old age is creepin' up his spine,
                D G 
and the day is comin' when the sun won't shine.
 G C D7 
Now, at sixty, he won't have to guess; He's already missed 
          G                            
the boat that leads to success; But he's done his best
        C Am D7 
and he can't see why, the fame of life just passed him by.
  G C D7 G 
Now at seventy, he can see the light and he knows he's never 
                                                          
been very bright. But he's done his best as he's traveled by 
 C D G 
and now, all he can do is to sit and sigh.

Chorus 2

( sung )

 C G Am D7 
Pity a man, for he don't know, the trouble he'll pass 
       G 
going down life's road.

Verse 2

( Recitative )

 G C D7 
Now at eighty, he's ready for the reath. He's wore out his hair
     G C 
and two sets of teeth; He has rheumatism in his hands and feet,
 Am D7 G                
and nothin' seems good to eat. So you can pity him as he goes
 C D7 G 
up the line. As he wobbles on the spindle and he's almost blind.
                                                  C 
And you can tell by the way that he travels alone, that it won't be
      D G       
long before he's goin' home. But if he's kept the commandments
                  C D7 
as he's traveled through life, he'll have a home in Heaven 
                G 
where there'll be no strife. He's worked all his life to get 
            C Am 
things the way he wants them; He comes here against his will 
 D7 G 
and he goes away disappointed.

flyinglibra51
God Bless Glen Travis Campbell

The Man Who Would Be King intro Tabs – Iron Maiden Vsion 2

 -------------------------------------------------------------------------------
                             The Man Who Would Be King - Iron Maiden
-------------------------------------------------------------------------------
: Kyle Zamory

Tuning: Standard

. submission. Enjoy!

************************************

| /   slide up
| \   slide down
| h   hammer-on
| p   pull-off
| ~   vibrato
| +   harmonic
| x   Mute note
| b   Bend
| pb  Pre-bend
| br  Bend release
| pbr Pre-bend release
| brb Bend release bend

************************************

e|--------------------------10-----------------------------------------------|
B|-----------10---12---13--------12---13-------------------------------------|
G|-----------------------------------------12--------------------------------|
D|---------------------------------------------------------------------------|
A|---------------------------------------------------------------------------|
E|---------------------------------------------------------------------------|

e|--------------------------10-----------------------------------------------|
B|-----------10---12---13--------12--------10--------------------------------|
G|------------------------------------12-------------------------------------|
D|---------------------------------------------------------------------------|
A|---------------------------------------------------------------------------|
E|---------------------------------------------------------------------------|
                                                                                    X2
e|--------------------------10---12---13--------10---------------------------|
B|-----------10---12---13------------------13--------12----------------------|
G|---------------------------------------------------------------------------|
D|---------------------------------------------------------------------------|
A|---------------------------------------------------------------------------|
E|---------------------------------------------------------------------------|

e|-----------13---12-H-13-P-12-P-10---8-H-10-P-8-----------------------------|
B|-------------------------------------------------12---8-H-10-P-10----------|
G|--------------------------------------------------------------------9------|
D|---------------------------------------------------------------------------|
A|---------------------------------------------------------------------------|
E|---------------------------------------------------------------------------|

Blind Man chords – Devin Dawson

 Devin Dawson
...his first single
Blind Man
Chorded By:  Jeff Martin
Tuning:  Standard

If you YouTube the song, he tunes 1/2 step down for live performances.



Chords Used (and I am going to make up a few names for a couple of chords).  For the first three chords;
he typically only plays the top three E,A,D strings, hammers on the D string and palm mutes them.

 G5     |30003x|
"G2"  |30203x| 
"G4"  |30403x|
 Am7    |x02010|
 G6     |020030|
 Em     |02200x|
 C      |332010|
"C2"  |554030|   


Intro:

 G5  -  G2  -  G4  -  G2 

Verse
          G5 G2 
We got tonight to our selves
          G4 G2 
Couldn’t see myself right here with no one else
               G5 G2 
It’s been too long, girl I know
 G4 G2 
I’m all yours, so come on lead me where you want to go

Chorus
          G5 
Oh baby, take these tired fingertips
            G2  
Trace that goose bump grail across your skin
   G4 G2 
Tonight I want to read you with my hands
              G5 
Lets let the candles burn, kill those lights
         G2 
I wanna relearn all your curves and lines
      G4 G2 
In a way that I could only understand if I were a 
 G5 G2 G4 G2 
Bli...  ...nd man

VERSE
            G5 G2 
Lets just close our eyes
           G4 G2 
Let these touchin’ feelin’ senses come alive
                     G5 (Full chords from here on out)
Cuz now our pulse is racing hard to beating
     Am7 
And syncopate in harmony
 G6 Am7 
If I said I didn’t need you, I’d be lying

Cuz I been dying to…

 G5 
take these tired fingertips
            Am7  
Trace that goose bump grail across your skin
   G6 Am7 
Tonight I want to read you with my hands
              G5 
Lets let the candles burn, kill those lights
         Am7 
I wanna relearn all your curves and lines
      G6 Am7 
In a way that I could only understand if I were a 
 G5 Am7 G6 Am7 
Bli...  ...nd man, I aint gotta see you baby, I just wanna feel you like a
 G5 G2 G4 G2 
Bli...  ...nd man

Bridge
     Em C2 C 
Sometimes we blink and take this love for granted
       Em C2 C 
But I won’t loose sight of all that I’ve been handed

Cuz I’m gonna…

Chorus

 G5 
take these tired fingertips
            Am7  
Trace that goose bump grail across your skin
   G6 Am7 
Tonight I'm gonna read you with my hands
              G5 
Lets let the candles burn, kill those lights
           Am7 
I'm gonna relearn all your curves and lines
      G6 Am7 
In a way that I could only understand if I were a 
 G5 Am7 G6 Am7 
Bli...  ...nd man, I aint gotta see you baby, I just wanna feel you like a
 G5 G2 G4 G2 
Bli...  ...nd man
            G5 G2 
Cuz we got tonight to ourselves
            G4 G2 
I couldn’t see myself right here with no one else

I Killed A Man Who Looks Like You chords – Robert Pollard

 [Not sure about the lyrics, I'm not a native speaker]

Intro:   Em G Em C Em G 
Sacrificed the digits son
 Em C 
I innocently drew the gun
 Em G 
To orchestrate no go away
 Em C 
To come too late some other day

       Em D 
And I killed a man who looks like you
         C D Em 
I don’t understand the things a man won’t do

 Em G 
Wasted man will take a look
 Em C 
A mirrored image he mistook
 Em G 
And rippled fools reflect within
 Em C 
The shattered glass to look again

       Em D 
And I killed a man who looks like you
         C D Em 
I don’t understand the things a man won’t do

       Em D 
And I killed a man who looks like you
         C D Em 
I don’t understand the things a man won’t do

Death Of A Ladies Man chords – Leonard Cohen

 Leonard Cohen - Death of a Ladies' Man (1977)
Chords 30/11-2015 by Jon Malmin (jogusmal@hotmail.com)
Tuning: Standard E (Capo 3rd fret)

Strumming pattern (dots denote sixteenth notes):
[1 . . . 2 . . . 3 . . . 4 . . .]
[D   D   D   D U D   D   D   D U]


Intro:  D E7 Em A7 G D  (x2)


Verse 1:
        D E7 
Ah the man she wanted all her life was hanging by a thread
     Em A7 G D 
"I never even knew how much I wanted you," she said.
      D E7 
His muscles they were numbered and his style was obsolete.
     Em A7 G D 
"Oh baby, I have come too late." She knelt beside his feet.


Verse 2:
        D E7 
"I'll never see a face like yours in years of men to come
       Em A7 G D 
I'll never see such arms again in wrestling or in love."
     D E7 
And all his virtues burning in the smoky Holocaust
     Em A7 G D 
She took unto herself most everything her lover lost


Bridge 1:
 Bm  
........Now the master of this landscape he was standing at the view
         Em 
with a sparrow of St. Francis that he was preaching to
      F#m 
She beckoned to the sentry of his high religious mood
                  Em Em/D# Em/D A7 
She said, "I'll make a place between my legs, I'll show you solitude."


Interlude:   D 


Verse 3:
     D E7 
He offered her an orgy in a many mirrored room
    Em A7 G D 
He promised her protection for the issue of her womb
     D E7              
She moved her body hard against a sharpened metal spoon
      Em A7 G D 
She stopped the bloody rituals of passage to the moon

Piano solo backing:
 D E7 Em A7 G D   (x2)
 D  (for 2 bars)


Verse 4:
      D E7 
She took his much admired oriental frame of mind
         Em A7 G D 
and the heart-of-darkness alibi his money hides behind
      D E7 
She took his blonde madonna and his monastery wine
        Em A7 G D 
"This mental space is occupied and everything is mine."


Interlude:  D  (for 2 bars)


Verse 5:
     D E7 
He tried to make a final stand beside the railway track
                Em A7 G D 
She said, "The art of longing's over and it's never coming back."
     D E7 
She took his tavern parliament, his cap, his cocky dance,
     Em A7 G D 
She mocked his female fashions and his working-class moustache.


Bridge 2:
 Bm                      
........Now the last time that I saw him he was trying hard to get
    Em 
A woman's education but he's not a woman yet
         F#m 
And the last time that I saw her she was living with some boy
      Em Em/D# Em/D A7 
Who gives her soul an empty room and gives her body joy.


Last verse:
               D E7 
So the great affair is over but whoever would have guessed
           Em A7 G D 
It would leave us all so vacant and so deeply unimpressed?
      D E7  
It's like our visit to th

Bleeder Tabs – Mutoid Man

 -------------------------------------------------------------------------------
                             BLEEDER - Mutoid Man
-------------------------------------------------------------------------------
: lithiumfaux


Tuning - low to high - G# G# C# F# A# D#
(low G# is an octave below the other)


INTRO             (let all notes ring out)                                  x9
e|---------------------------------------------------0-----0-----------------|
B|-----0-----0---------------0-----0---------------1-----4-----3-------------|
G|---0-----0-----0---------0-----0-----0---------2-----/5-----4--------------|
D|-2-----/5-----4---------2-----0-----------------------------------------2-1|
A|-----------------------------------3---------------------------------------|
E|---------------------------------------------------------------------------|
     (3)   (3)       (8)                                                                 x2  On 2nd ending, play
e|----------------------------------------------------------0-0-0-0-0-0-0-0-0-0-0-0-00-----|      | this instead
B|--0-0-0-0-0-0-0-0-0-0-0-0-0-0-0-0-0-0-0-0-0-0-0-0-0-0-0-0-1-1-1-4-4-4-3-3-3-3-3-3-3-3----|      v of ---2-1|
G|--0-0-0-0-0-0-0-0-0-0-0-0-0-0-0-0-0-0-0-0-0-0-0-0-0-0-0-0-2-2-2-5-5-5-4-4-4-4-4-4-4-4----|
D|--2-2-2-5-5-5-4-4-4-4-4-4-4-4-2-2-2-0-0-0---------------------------------------------2-1|
A|------------------------------------------3-3-3-3-3-3-3-3--------------------------------|    --7-6|
E|-----------------------------------------------------------------------------------------|    --7-6|
                                                                                                          x2
e|-----------------------------------------------------------------------------------------------------------|
B|-----------------------------------------------------------------------------------------------------------|
G|-----------------------------------------------------------------------------------------------------------|
D|-----------------------------------------------------------------------------------------------------------|
A|-7-7-7-10-10-10-9-9-9-9-9-9-9-9-9-7-7-7-5-5-5-3-3-3-3-3-3-3-3-12-12-12-15-15-15-14-14-14-14-14-14-14-14-7-6|
E|-7-7-7-10-10-10-9-9-9-9-9-9-9-9-9-7-7-7-5-5-5-3-3-3-3-3-3-3-3-12-12-12-15-15-15-14-14-14-14-14-14-14-14-7-6|

   wobbly leadish part  - listen to the song for timing, effects, and help!
   e|----------------------------------------------------12---------15---------19----b20-|
   B|-----------------------8--------12-------b13----------------------------------------|
   G|----------------9-------------------------------------------------------------------|
   D|----9bendslowly---------------------------------------------------------------------|
   A|------------------------------------------------------------------------------------|
   E|------------------------------------------------------------------------------------|






PART 2                                                                     pm
e|----------------------------------------------------------------------------------|
B|----------------------------------------------------------------------------------|
G|--5-------5-------4---5-------5-------4---5-------5-------4---5-------5-----------|
D|--5-------5-------4---5-------5-------4---5-------5-------4---5-------5-----------|
A|--3---2---3---2---2-0-3---2---3---2---2-0-3---2---3---2---2-0-3---2---3---2-------|
E|--3---2---3---2---2-0-3---2---3---2---2-0-3---2---3---2---2-0-3---2---3---2-------|







PART 3      (let ring)  
e|--0------------------------------------------------------------------|
B|-----------10------8-----------------------12------15---13-----------|
G|----11---12------11-----11---------------14------17---------16-------|
D|--------------------------9-----------------------------------14-----|
A|---------------------------------------------------------------------|

You Let A Good Man Go Tabs – Peer Günt

 Main Riff:
e:---------------------------------------------------------------------------|
B:-----8--7----5~------------------------------------------------------------|
G:-----7--7----5~------------------------------------------------------------|
D:------------------7--5-----------------------------------------------------|
A:--0----------------------7--5----------------------------------------------|
E:-------------------------------8--5----------------------------------------|


Bridge1:
e:---------------------------------------------------------------------------|
B:---------------------------------------------------------------------------|
G:-5--5--5--5--5----5--5--5--5-----------------------------------------------|
D:-4--4--4--4--4----4--4--4--4-----------------------------------------------|
A:-5--5--5--5--5----5--5--5--5-----------------------------------------------|
E:---------------------------------------------------------------------------|

                                                                
Bridge2:
e:--------------------------------------------------------------|
B:--------------------------------------------------------------|
G:--7--7--7--7--7----7--7--7--7------5--5--5--5--5----5--5--5--5|
D:--6--6--6--6--6----6--6--6--6------4--4--4--4--4----4--4--4--4|
A:--7--7--7--7--7----7--7--7--7------5--5--5--5--5----5--5--5--5|
E:--------------------------------------------------------------|


Alternate version:


Main Riff:
e:---------------------------------------------------------------------------|
B:-----8--7----5~------------------------------------------------------------|
G:-----9--7----5~------------------------------------------------------------|
D:------------------7--5-----------------------------------------------------|
A:--0----------------------7--6--5-------------------------------------------|
E:----------------------------------5----------------------------------------|

Ramblin Gamblin Man Live chords – Bob Seger And The Silver Bullet Band

 Ramblin’ Gamblin’ Man (Live) - Bob Seger And The Silver Bullet Band
From: 'Live Bullet' Album, 1976. ♫ Written By: Bob Seger, 1968. ♫
Recorded: September 4 or 5, 1975, in Cobo Hall, Detroit, MI.
Chorded By: Skidaddy, Esq., G.Q.

4/4 TIME @ ~132 BPM (3 Min. 2 Sec.) in 'E'.

Chords Used:
-----------
             GUITAR             KEYBOARD
         E A D G B   e     Bass|  Chord
       ------------------    ---------------
E7   -  0  2  0  1  0  0      E    G#-B-D-E
E7s  -  0  2  0  2  0  0      E    A-B-D-E
D7   -  x  x  0  2  1  2      D    A-C-D-F#
D7s  -  x  x  0  2  1  3      D    A-C-D-G
A7   -  x  0  2  0  2  0      A    A-C#-E-G
A7s  -  x  0  2  0  3  0      A    A-D-E-G
E    -  0  2  2  1  0  0      E    G#-B-E
Es4  -  0  2  2  2  0  0      E    A-B-E
D    -  x  x  0  2  3  2      D    A-D-F#
Ds4  -  x  x  0  2  3  3      D    A-D-G
A    -  x  0  2  2  2  0      A    A-C#-E
As4  -  x  0  2  2  3  0      A    A-D-E

INTRO: [12 Measures] (Lower case letters are single notes) -
-----
                            1 2 3+ 4 +  1 2 + 3 + 4+…
|Drums…  |…       |…       |…    b-d-d#|E7  E7s E7  |D7  D7s D7  |

| A7   A7s  A7         | E7       E7s    E7         | E7   E7s  E7        | D7   D7s  D7   |
         I'm gon-na tell… my… tale… Come on,…         come on,…

| A7  A7s  A7      | E7        E7s       E7        |
         give a lis-ten… ‘Cause I was born…

VERSE #1: [8 M]
--------

| E Es4 E        | D Ds4 D        |
 lone-… ly… down… by the riv-er-side,… learned to spin…

| A As4 A      | E Es4 E         |
 for-tune wheels,…   throw… dice…  And, I was just…

| E Es4 E        | D Ds4 D           |
 thir-… teen… when I had to leave… home,… knew I could-n't

| A As4 A     | E Es4 E       |
 stick a-round,…     had… to roam. I ain't… good…

VERSE #2: [8 M]
--------

| E Es4 E          | D Ds4 D          |
 look-in',…  but you know I ain't… shy… Ain't a-fraid to

| A As4 A    | E Es4 E             |
 look you girl…     in… the eye, so if you need some

| E Es4 E           | D Ds4 D         |
 lov-… in',… and you need it right a-way,… take a lit-tle

| A As4 A          | E Es4 E           |
 time… out…   and may-be I'll… stay… Then I've got to

CHORUS #1: [9 M]
---------

| E                          | D                     | A                          |
 ram-… ble… [Ram-bl-in' man…]  Lord,… I've got to gam-… ble… [Gam-bl-in' man…]

| E                | E                         | D                   |
…   Oh,… I got to ram-…ble… [Ram-bl-in' man…]  And I was born a

| A                            | E        |…           |
 ram-… blin',… gam-bl-in' man…              Hey!…

GUITAR SOLO #1: [8 M]
--------------

| E7   E7s  E7   | D7   D7s  D7   | A7   A7s  A7   | E7   E7s  E7   |


| E7   E7s  E7   | D7   D7s  D7   | A7   A7s  A7   | E7   E7s     E7          |
                             

Youre A Better Man Than I chords – Yardbirds

 INTRO:  G A F#m            X2

    D -----5--5--------7---7--------4------4-
    A ---5---5--5----7---7---7----4------4---
    E -3-----------5------------2------2-----

VERSE 1:
 G A F#m         
Can you judge a man, by the way he wears his hair
 G A F#m 
Can you read his mind, by the clothes that he wears
 E F#m G A 
Can you see a bad man by the pattern on his tie

CHORUS:
           Bm A Bm A 
Well then mister you're a better man than I, Yeah, mister you're a better man than I
     Bm A Bm A F#m 
Oh, mister you're a better man than I, yeah, mister you're a better man than I

VERSE 2:
 G A F#m 
Could you tell a wise man, by the way he speaks or spells
 G A F#m 
Is this more important, than the stories that he tells
 E F#m G A 
And call a man a fool if for wealth he doesn't strive

CHORUS:
           Bm A Bm A 
Well then mister you're a better man than I, Yeah, mister you're a better man than I
     Bm A Bm A F#m 
Oh, mister you're a better man than I, yeah, mister you're a better man than I

SOLO: F#m

VERSE 3:  
 G A F#m       
Can you condemn a man, if your faith he doesn't hold
         G A F#m 
Say the colour of his skin, is the color of his soul
 E F#m G A 
Could you say that men for king and country all must die

CHORUS:
           Bm A Bm A 
Well then mister you're a better man than I, Yeah, mister you're a better man than I
     Bm A Bm A F#m 
Oh, mister you're a better man than I, yeah, mister you're a better man than I