Tag: mark

Hawaiian Roller Coaster Ride Tabs – Mark Kealii Hoomalu Vsion 1

 --------------------------------------------------------------------
                  Hawaiian Roller Coaster Ride 
by Mark Keali'i Ho'omalu and The Kamehameha Schools Children's Chorus
--------------------------------------------------------------------
From the Original Soundtrack of Lilo and Stitch

Listen it here : https://www.youtube.com/watch?v=L4X1_3VipWs

: Laviru93doodle aka Laviru K. 

Guitar and Ukulele tabs

these are the licks that are played through the song. 

---------------------Guitar Tabs--------------------------

LICK n°1:
e|-------------------5-------|----------------------5-------|
B|-6--6--6-----6--------8-6--|-6--6--6--6-----6--------8-6--|
G|----------7-----7----------|-------------7-----7----------|
D|---------------------------|------------------------------|
A|---------------------------|------------------------------|
E|---------------------------|------------------------------|

LICK n°2:
e|---------------------------|------------------------------|
B|-6--6--6-----6-----6--8-6--|-6--6--6--6-----6-----6--8-6--|
G|----------7-----7----------|-------------7-----7----------|
D|---------------------------|------------------------------|
A|---------------------------|------------------------------|
E|---------------------------|------------------------------|

LICK n°3:
e|-8-8-8---------------------|----6-6-6---------------------|
B|--------8--8--8--8--10--8--|-----------6--6--6--6--8--6---|
G|---------------------------|------------------------------|
D|---------------------------|------------------------------|
A|---------------------------|------------------------------|
E|---------------------------|------------------------------|


---------------------Ukulule Tabs--------------------------

LICK n°1:
A|-------------------0-------|---------------------0-------|
E|-1--1--1-----1--------3-1--|-1-1--1--1-----1--------3-1--|
C|----------2-----2----------|------------2-----2----------|
G|---------------------------|-----------------------------|

LICK n°2:
A|---------------------------|-----------------------------|
E|-1--1--1-----1-----1--3-1--|-1-1--1--1-----1-----1--3-1--|
C|----------2-----2----------|------------2-----2----------|
G|---------------------------|-----------------------------|

LICK n°3:
A|-3-3-3---------------------|---1-1-1---------------------|
E|--------3--3--3--3--5--3---|----------1--1--1--1--3--1---|
C|---------------------------|-----------------------------|
G|---------------------------|-----------------------------|

Differen Kind Of Christmas chords – Mark Schultz

 Capo on 1

Intro:  C F Am G C F 
Snow is falling Christmas Eve

 C F 
Lights are coming on up and down the street

 C F 
The sound of carols fills the air

 C F 
And people rushing home, families everywhere


 F C 
Putting candles in the windows

 G Am 
Lights upon the tree

                F C 
But there's no laughter in this house

                G 
Not like there used to be

                F C 
There's just a million little memories

      G Am 
That remind me you're not here

             F G C 
It's just a different kind of Christmas this year


 F C F 
In the evening fires glow

 C F 
Dancing underneath the mistletoe

 C F 
A letter left from Santa Claus

 C F 
Won't be the same this year in this house because


                  F C 
There's one less place set at the table

 G Am 
One less gift under the tree

       F C G 
And a brand new way to take their place inside of me

       F C 
I'm unwrapping all these memories

 G Am 
Fighting back the tears

             F G C 
It's just a different kind of Christmas this year


 F Am G Am 
There's voices in the driveway

          G 
Families right outside the door

           C F 
And we'll try to make this Christmas like the ones we've had before

       F G 
As we gather round the table, I see joy on every face

     Am F G 
And I realize what's still alive is the legacy you made


                      F C 
It's time to put the candles in the windows,

     G Am 
The lights upon the tree

              F C G 
It's time to fill this house with laughter like it used to be

      F C 
Just because you're up in heaven, 

         G Am 
Doesn't mean you're not near

             F G Am G F 
It's just a different kind of Christmas

             F G C 
It's just a different kind of Christmas this year

 F Am G C

Ich Trink Auf Dich chords – Mark Forster

 Mark Forster - Ich trink auf dich 
Tab by Jan Zöbisch 

Capo 1, Standard Tuning 

Intro
 Em D C D  

Verse 1
 Em 
Eigentlich sehen wir uns garnicht mehr
 D 
Obwohl wir früher wie Brüder waren
 C 
Krass was mit der Zeit passiert
 D 
Wie schnell man den Kontakt verliert
 Em 
Hab grad gemerkt dass ich deine neue Nummer nicht hab
 D 
Wollt nur mal hören wie's dir geht
 C 
Jetzt ist es mitten in der Nacht
 D 
Und ich frag mich was du machst

Chorus 
 Em 
Ich trink auf dich mein Freund
 Em D G  
Auf jeden Tag aus unserer Zeit
             C D 
Auf das was geht und das was bleibt

 Em 
Ich trink auf dich mein Freund
 Em D G 
Ich heb auf dich mein Glas
             C D 
Auf das was kommt und das was war



Verse 2
 Em 
Ich schenk mir nochmal nach
 D 
Werd langsam sentimental
 C 
Es passte nichts zwischen uns beide
 D 
Heut hab ich Schiss dir kurz zu schreiben
 Em 
Sind wir Freunde die sich selten sehen
 D 
Oder sind wir keine Freunde mehr
 C 
Ey wichtig ist es nicht
 D 
Was wir hatten steht für sich

Chorus
 Em 
Ich trink auf dich mein Freund
 Em D G  
Auf jeden Tag aus unserer Zeit
             C D 
Auf das was geht und das was bleibt

 Em 
Ich trink auf dich mein Freund
 Em D G 
Ich heb auf dich mein Glas
             C D 
Auf das was kommt und das was war


Bridge
 C D 
Auch wenn Wege sich mal trennen
 D C 
Und wir in andere Richtungen rennen
 C D 
Es ist schon gut so wie es ist


 C D 
Auch wenn man Zeit nicht konserviert
 D C 
Und man sich irgendwann verliert
 C D 
Ist es schon gut so wie es ist



Chorus
 Em 
Ich trink auf dich mein Freund
 Em D G  
Auf jeden Tag aus unserer Zeit
             C D 
Auf das was geht und das was bleibt

 Em 
Ich trink auf dich mein Freund
 Em D G 
Ich heb auf dich mein Glas
             C                                      
Auf das was kommt und das was war
             D Em 
Auf das was kommt und das was war

 Em D G C D Em G D G 
Ich heb auf dich mein Glas
             C                                       
Auf das was kommt und das was war
             D Em 
Auf das was kommt und das was war

Laughs And Jokes And Drinks And Smokes chords by Mark Knopfler

 Laughs and Jokes and Drinks and Smokes
By Mark Knopfler from his 2015 Tracker album
For any questions mail me to fffoma


Key: C Major
Time: 6/8, with single 3/4 bars


To get that 'folk feeling' just play all chords with G on top.
For instance, F like [1x3213], C like [x32013] and so on.


CAPO: No


C/G.......................[332010]


|  Am7 Em7  | x12

|  Am F  |  F G  |  Em Am  | 3/4  F  |  G  |
|  Am F  |  F G  |  Em Am  |  Dm G  |
|  C  |  G C  |  Am G  |  Am  |
|  C  |  G C  |  Am G  |  Am  |
|  Am  | % |


 Am 

Laughs and jokes
       C F 
And drinks and smokes
      C F 
And no lights on the stairs
          Am 
We were young, so young
     C F 
And always broke
       G Am F 
Not that we ever cared
       C G C 
Not that we ever cared


            G F 
Well, the holes in the walls
       C G 
Were such a lot
             F C 
Welcome to London town
                  G F 
But when you’re new to it all
           C 
And you think you’re hot
              G F C 
You’re not planning on hanging around
  C F 
People would go on their different ways
    C Am F 
I left to start a band
    G F C G 
A note came through the letter box
           F C 
In your childlike hand


      Am 
Oh, laughs and jokes
       C F 
And drinks and smokes
      C F 
And no lights on the stairs
          Am 
We were young, so young
     C F 
And always broke
       G Am F 
Not that we ever cared
       C G C 
Not that we ever cared


      G F C 
One day I rode to where you were
      G F C 
The doorbell jangled a note
       G F 
They buzzed me in
     C 
I climbed the stairs
        G F C 
In my boots and leather coat
            C 
There’s an old brass
                F 
Standing there at the top
     C Am F 
Without her witch’s broom
    G F C 
It almost seemed like a knocking shop
           G F C 
When the girls came out of their rooms


          G F 
And they all stood around
       C 
And stared at me
       G F C G 
Two brunettes and a blonde
          F C 
Then the old brass shrugged and said
     G F C C 
We don’t know where she’s gone
                   F 
Later on I picked up the ball
        C Am F 
And I took off down the line
       G F C 
I suppose by then I’d realised
        G F C 
You’d run into hard times


      Am 
Oh, laughs and jokes
   

River Towns chords by Mark Knopfler

 River Towns by Mark Knopfler from Tracker album
For any questions mail me to fffoma


Key: B Major
Time: 4/4


CAPO: 4


Gadd9...................[3x0203]
C/G.....................[332010]
Em7.....................[020000]
CMaj7/G.................[332000]


|  G Gadd9  |  G  | x4

|  G Gadd9  |  G C/G  |  G Gadd9  |  Em7 CMaj7/G  |
|  G Gadd9  |  G C/G  |  G Gadd9  |  G  |


    G 
I came in three days early
                  C/G 
To meet my boat
     G Gadd9 
It ain’t the life of Riley
           Em7 C/G 
But it’s keeping me afloat


       G 
It’s quiet over Christmas
                         C/G 
If you got no place to go
    G Gadd9 
I got my home from river rats
     Em7 CMaj7/G G Gadd9 G 
The only home I know


    G 
I found myself a flophouse
                           C/G 
And I hit the streets at nine
  G Gadd9 
Get some grub and drink a beer
  Em7 CMaj7/G 
Maybe go down the line


         G 
These chips will take your money
                    C/G 
Shake a young man down
           G Gadd9 
It’s the same in every one of these
  Em7 C/G 
Sorry river towns


  G Gadd9 
River towns
  G C/G 
Sorry river towns
  G Gadd9 Em7 CMaj7/G 
River towns
  G Gadd9 
River towns
  G C/G 
Sorry river towns
  G Gadd9 G 
River towns


|  G Gadd9  |  G C/G  |  G Gadd9  |  Em7 C/G  |
|  G Gadd9  |  G C/G  |  G Gadd9  |  G  |


         G Gadd9 
Well I picked me up a bottle
     G CMaj7/G 
To take back to the room
         G Gadd9 
Then I saw a young girl standing
       Em7 C/G 
In a doorway in the gloom


       G Gadd9 
We’d hardly started talking
     G C/G 
The old scenario
             G Gadd9 
And I just let her work me over
       Em7 C/G 
Down by the Ohio


  G Gadd9 
River towns
  G C/G 
Sorry river towns
  G Gadd9 Em7 C/G 
River towns
  G Gadd9 
River towns
  G C/G 
Sorry river towns
  G Gadd9 G 
River towns


|  G Gadd9  |  G  | x4

|  G Gadd9  |  G C/G  |  G Gadd9  |  Em7 C/G  |
|  G Gadd9  |  G C/G  |  G Gadd9  |  G  |


        G 
When I asked her if she’d like to stay
                            C/G 
She was down my stairs so quick
         G 
I never asked what got her started
           Em7 C/G 
With the sorry river tricks


       G Gadd9 
So I get the bottle open
      G C/G 
But something’s hi

Stronger In The Broken Places Acoustic chords – Mark Harris

 INTRO

 Cadd9 

----------------------------------
 Cadd9 
Light shines the brightest 
                      F6 
In the moment of our desperation
 Cadd9 
Hope somehow rises 
                            F6 
Through the rubble of our desolation 
            Am G 
There's a calm in the storm 
             Cadd2 
Though the winds around us rage
      Am G 
So I hold to the truth 
          Cadd2 
You will bring me through 
                  Gadd4
The darkest of my days 

CHORUS
-------------------------------------------------------
                         Cadd2 C 
There is beauty in the suffering 
                        Gadd4       G
Hope can heal what hurt embraces 
                              Cadd2 
Through it all I know you're making me 
 Am G          Gadd4   G 
Stronger in the broken places

-------------------------------------------------------
 Cadd9 F6 
Hope is believing, though it seems a hopeless situation
 Cadd9 F6 
Faith is the reason, we can make it through life's complications
               Am G F6 
With the words 'Peace be still', you will calm the angry waves
      Am G Cadd9 G 
So I hold to your hand, Knowing up ahead,There will be better days
--------------------------------------------------------

CHORUS X2
                             Cadd9 
Through it all I know you're making me 
 Am G          Gadd4   G 
Stronger in the broken places

--------------------------------------------------------
OUTRO

            Am G 
There's a calm in the storm 
             Cadd2 
Though the winds around us rage

Beyond My Wildest Dreams chords – Mark Knopfler V2

 This rhy.fig. 1 is played in the verses, strumming direction for the full chord might be a question of flavour.

e|--0-----0-----0--------1--|
B|--1-----1-----1--------1--|
G|--0-----0-----0--------2--|
D|--0-h2--0-h2--0-h2-p0--3--|
A|--3-----3-----3--------3--|
 E |--X-----X-----X--------1--|



INTRO:  Asus4 C G F G    (2x)


        C Csus2 C  ...
didn't ask for much
 F C 
     As maybe i ought've
         C Csus2 C  ...
But i'm staying in touch
 F G 
     With the one i love
           C Csus2 C  ...
And i can see in the dials
 F C 
     And in these headlights beams
    F G 
Beyond my wildest


 C F G 
     Beyond my wildest dreams
 C F G 
     Beyond my wildest dreams
 C F 
     Beyond my wildest dreams
      G F G 
I've been with you

I've been with you


 Asus4 C G G C Csus2 C  ...
These are the big payloads
 F C 
        Hammer down on the floor
               C Csus2 C  ...
These are the restless roads
 F G 
        Every one a war
            C Csus2 C  ...
But in the flashing lines
 F C 
        I see a love supreme
    F G 
Beyond my wildest


 C F G 
     Beyond my wildest dreams
 C F G 
     Beyond my wildest dreams
 C F 
     Beyond my wildest dreams
      G F G 
I've been with you

I've been with you


 Asus4 C G G Bb F 
   They promised me some good home time
 C 
   And some layover pay
 Bb F 
   The agent he's a friend of mine
 Fm 
   Says it's due my way


             C Csus2 C  ...
I'd drive a thousand miles
 F C 
        Haul a trailer of tears
         C Csus2 C  ...
Just to see you smile
 F G 
        And as the dawn appears
        C Csus2 C  ...
At the edge of the night
 F C 
        There's still a light that gleams
    F G 
Beyond my wildest


 C F G 
     Beyond my wildest dreams
 C F G 
     Beyond my wildest dreams
 C F 
     Beyond my wildest dreams
      G F G 
I've been with you

I've been with you


 C F G 
     Beyond my wildest dreams
 C F G 
     Beyond my wildest dreams
 C F 
     Beyond my wildest dreams
      G F G 
I've been with you

I've been with you


 Asus4 C G G 
repeat 4x and fade

Ominous chords – John Mark Mcmillan

 Bm A  
six round in the hands of a killer
 Em G 
i am dangerous in your arms
 Bm A  
we are the midnight city siren
on the back of wisdom
 Em G 
crying against the wasteland boulevard


 Bm A  
i am, i mean, you are with me
 Em  
well, we are
 G 
ominous tonight

 Bm A Em G Bm A  
six strings in the hands of a poet
 Em G 
i am poetry in your eyes
 Bm  
so light me up with a song
 A 
stain the sky with my burning
 Em G 
and i will not apologize

 Bm  
who's gonna cry if i won't?
 A  
who's gonna shine if i don't?
 Em G 
who's gonna bring it down?
 Bm A  
where is the hope in this crowd of indifferent
 Em G 
where is the truth if it's not in my mouth


 Bm A  
i am, i mean, you are with me
 Em  
well, we are
 G 
ominous tonight

 Bm A Em G  3x

 Bm A  
six a.m. in the hands of the morning
 Em  
i am a skyline
 G 
you are the sun
 Bm  
deep between our meeting
 A  
the heavens are receeding
 Em G 
and the stars fade one by one

 Bm A  
i am, i mean, you are with me
 Em  
well, we are
 G 
ominous tonight

We Die And See Beauty Reign Tabs – Isobel Campbell And Mark Lanegan

 -------------------------------------------------------------------------------
        WE DIE AND SEE BEAUTY REIGN - Isobel Campbell And Mark Lanegan
-------------------------------------------------------------------------------

Tuning:standard

  Gm                       x4
e|--------------------------|
B|-------3------3-1---------|
G|-----3----/2-3----3-2-----|
D|---5-------------------3--|
A|--5-----------------------|
E|-3------------------------|
  We die and see
  beauty reign  x2

  F
e|---------------------------|
B|-----1---------------------|
G|----2-------5--------------|
D|---3-----------------------|
A|--3-------8--8-------------|
E|-1-----5-8----8-5----------|
  And on and on
 
  Bb
e|---------------------------|
B|---------------------------|
G|------3--------------------|
D|--0-3---3------8-----------|
A|-1---------5-8---8---5-----|
E|---------6--------6--------|
 The final trace

  Gm
e|-----------1---------------|
B|------3-----------3-1------|
G|----2---2-----/2-3---3-2---|
D|--0----------------------3-|
A|---------------------------|
E|---------------------------|
  Shall know its place

  Gm
e|--------------------------|
B|----------------3-1-------|
G|--------3--/2-3-----3-2---|
D|----5-----------------3---|
A|--5---5-------------------|
E|-3------------------------|
  And slow erase

We die and see hosts and ghosts
We force ourselves down their throats
And walk along the old dirt track
No thoroughfare
No going back

We fucked it up
Forced the pace
Got swept along
Forged our fate
Our banks foreclose
Our fortunes fade
Our alibis are retrograde

We die and see beauty reign
We die and see beauty reign


************************************

| /   slide up
| \   slide down
| h   hammer-on
| p   pull-off
| ~   vibrato
| +   harmonic
| x   Mute note
| b   Bend
| pb  Pre-bend
| br  Bend release
| pbr Pre-bend release
| brb Bend release bend

************************************

Love At The End Of The World chords – John Mark Mcmillan

 Am     -      C 
Out of the gaslight
          Am C 
Off the roads we've traveled on
                 Am      -  C 
Down by the wayside
                 Am C 
Against the sheen of a Babylon
                  Am  -     C 
I've seen an empire
               Am C 
Taste the tempest of a gathering strong 
      G - F Am 
But I found love at the end of the world
(really hold out the “I” in these stanzas; you have to fit two chords over it)
                 Am  -  C 
My rabbit's running
         Am C 
On the street hot heels of Rome
              Am C 
My hour's coming to reconcile with the dawn

 Am C 
I I'm on the brink
 Am C 
I I'm on the brink
 Am C 
I I'm on the brink
      G - F Am 
But I found love at the end of the world

 F 
Tell the reaper
         C G 
Tell the repo man
 F C G 
I've got nothing that belongs to him 
 F C G 
Ruin pushes rubble in the city of sin 
       G - F Am 
But I found love at the end of the world


                Am         -  C 
Out of the good night
         Am C 
I was born into your arms
                      Am     -  C 
Like you're my country
                       Am C 
Like you're the hills where I belong
                Am C 
Out of that good night (I'm on the brink)
         Am C 
I was born into your arms (I'm on the brink)
                 Am C 
You are my country (I'm on the brink)
                         G F Am 
Like the hills where I found love at the end of the world

 F 
Tell the reaper
         C G 
Tell the repo man
 F C G 
I've got nothing that belongs to him 
 F C G 
Ruin pushes rubble in the city of sin 
       G - F Am 
But I found love at the end of the world

Irish Boy Tabs by Mark Knopfler

 IRISH BOY
00:05              x3                       00:40
--|-----------------|-------------------------|---7----7----7-10--------------7-|
--|-----------------|-------------------------|-----10---10-----------------8---|
--|---7-------------|--------7----------------|-7----------------9-9-7-9--9-----|
--|-9---10-9-10-9-7-|----7-9---10-9-10-9-7--9-|---------------------------------|
--|-----------------|-10----------------------|---------------------------------|
--|-----------------|-------------------------|---------------------------------|
        00:51                                       01:04
----------|---7----7----7-10---------------7----------|---------7--------7-----|
8-10-8-10-|-----10---10------------------8---8-10-8-8-|-------8---8-10-8-------|
----------|-7----------------9-9--7-9--9--------------|-7-9-9--------------7-9-|
----------|-------------------------------------------|------------------------|
----------|-------------------------------------------|------------------------|
----------|-------------------------------------------|------------------------|
             01:15                                   01:29
----7----------|---------7--------7---------7----------|-7----7----7-10---------|
--8---8-10-8-8-|-------8---8-10-8---------8---8-10-8-8-|---10---10--------------|
9--------------|-7-9-9--------------7-9-9--------------|----------------9-9-7-9-|
---------------|---------------------------------------|------------------------|
---------------|---------------------------------------|------------------------|
---------------|---------------------------------------|------------------------|
              01:41                                      01:54
----7-----------|---7----7----7-10--------------7----------|---------7--------7-|
--8---8-10-8-10-|-----10---10-----------------8---8-10-8-8-|-------8---8-10-8---|
9---------------|-7----------------9-9-7-9--9--------------|-7-9-9--------------|
----------------|------------------------------------------|--------------------|
----------------|------------------------------------------|--------------------|
----------------|------------------------------------------|--------------------|
             02:05                                    02:17
--------7------|---------7--------7----------7----------|--7----7----7-10------|
------8---8-10-|-------8---8-10-8----------8---8-10-8-8-|----10---10-----------|
7-9-9----------|-7-9-9---------------7-9-9--------------|-7---------------9-9--|
---------------|----------------------------------------|----------------------|
---------------|----------------------------------------|----------------------|
---------------|----------------------------------------|----------------------|

---------7---------------------------------------------------------------------|
-------8---8-10-8-10-----------------------------------------------------------|
7-9--9-------------------------------------------------------------------------|
-------------------------------------------------------------------------------|
-------------------------------------------------------------------------------|
-------------------------------------------------------------------------------|

Stay chords – Mark Lanegan

 Listen to the recording for rhythm and strumming. Lanegan kind of speaks some of the 
words and holds things for as long as he wants, so you can follow his style or add your own.

VERSE 1:
 G F C 
The heart will pound until the breath is gone
 G F C 
You know what I love so, put me on
 G F C 
Something has badly gone wrong with me
 G F C 
Livin's not hard, it's just not easy
 F 
Always keepin' the dogs off

CHORUS:
 C D C D 
Down like the rain, down like the rain
 C D G 
Comin' down like the rain, comin' down
 G C D G 
Oh I wanna be there, by your side
             C 
Cause this feels like dyin' baby
 G D G 
Let me stay around, let me stay around

VERSE 2 (same as Verse 1):
You take my heart, and my breath is gone
You know what I love so, put me on
Feel a little light-headed, you know I'd have to be
Believin' ain't hard, it's just not easy
Stayin' blind to the obvious

CHORUS (same as before):
Down like the rain, down like the rain
Comin' down like the rain, comin' down
Oh I wanna be there, by your side
Cause this feels like dyin' baby
Let me stay around, let me stay around

Repeat Chorus, then play through Chorus chords as many times as you like until the end. 
There's a cool solo on the recording, but they're also decent chords to just improvise over.

This is my first set of chords, hope you enjoy!

The Easy Mark The Old Maid Tabs by Bad Books

 The Easy Mark & The Old Maid by Bad Books

I learned this song by watching a video of Kevin Devine playing it solo - it matches
the album version.

Capo 2nd fret
Chords are relative to capo

Verse:

  Am Gadd11/B  G

E--x---x-------3-2-|
B--1---1-------0-0-|
G--2---0-------0-0-|
D--2---0-------0-0-|
A--0---2-------x-x-|
E--x---x-------3-3-|

Chorus:

   C    D   Em  G   C     G

E--00-3-2---0-0-3---x--x--3-|
B--11-1-3---0-0-0---5--4--0-|
G--00-0-2---0-0-0---5--5--0-|
D--22-2-0---2-0-0---5--5--0-|
A--33-3-x---2-0-x---3--3--x-|
E--xx-x-x---0-2-3---x--x--3-|

after the second chorus going into the bridge he slides up from the G to this chord:

E--7-|
B--0-|
G--0-|
D--0-|
A--0-|
E--7-|

Bridge:

   Em  A   C Cm

E--7---5---x-x---3-|
B--8---5---5-4---3-|
G--9---6---5-5---4-|
D--9---7---5-5---5-|
A--7---7---3-3---5-|
E--x---5---x-x---3-|

second time through:

   Em  A   C   Cm  D

E--7---5---x---x---2-|
B--8---5---5---4---3-|
G--9---6---5---5---2-|
D--9---7---5---5---0-|
A--7---7---3---3---x-|
E--x---5---x---x---x-|

Ending:
alternate your picking between the bass notes and the lead notes

E--0-2-3-0-3---xx-x-3--|
B--0-----------55-4-3--|
G--0-----------55-5-4--| X4
D--0-----------xx-x-5--|
A--x-----------xx-x-5--|
E--3-3-3-3-3---33-3-3--|

Future Past chords – John Mark Mcmillan

 VERSE 1
 C F 
You hold the reins on the sun and the moon
       Am F 
Like horses driven by kings
      C F 
You cover the mountains, the valleys below
           Am F 
With the breadth of your mighty wings


PRE-CHORUS
      F E/C 
All treasures of wisdom and things to be known
      Am G F 
Are hidden inside your hand
     F E/C 
And in this fortunate turn of events
     Am G F F 
You ask me to be your friend
     Am G F F 
You ask me to be your friend


CHORUS
     C G 
And you, You are my first, You are my last
            Dm C Am G F    -    C    
You are my fu - ture and my past

F  C (2nd time through CHORUS)


VERSE 2
        C F 
The constellations are swimming inside
      Am F 
The breadth of your desire
 C F 
Where could I run, where could I hide
 Am F 
from your hearts jealous fire


PRE-CHORUS

CHORUS

BRIDGE (x4)
 Dm E/C F 
You are the beginning and the end

Our Shangri-la Tabs by Mark Knopfler

 -------------------------------------------------------------------------------
                     Our Shangri-La - Mark Knopfler
-------------------------------------------------------------------------------
: adrian_misak
 adrian.misak7

Tuning: Standard

E  F#m  A   E

E
Its the end of a perfect day
  F#m
For surfer boys and girls
A
The Sun's dropping down in the bay
    E             H
And falling off the world
          E
There's a diamond in the sky
    F#m
Our evening star
A             E    B
In our shangri-la

         E
Get that fire burning strong
F#m
Right here and right now
     A
It's here and then its gone
           E          H
There's no secret, anyhow
       E
We may never love again
       F#m
To the music of guitars
A             E
In our shangri-la

memory...           turns...
e|--------------------------------------------------------------------------|
B|----7-7-9-10v------10-9-7-------------------------------------------------|
G|--9-----------------------9-6---------------------------------------------|
D|--------------------------------------------------------------------------|
A|--------------------------------------------------------------------------|
E|--------------------------------------------------------------------------|

A
Tonight your beauty burns
G#m     F#    
Into my memory
F#m
The wheel of heaven turns
A
Above us endlessly

        E
This is all the heaven we've got
F#m
Right here where we are
   A          E   B
In our shangri-la

e|-------------------------------------------------------------------------|
B|-------------------------------------------------------------------------|
G|----------------------------4--------------------------------------------|
D|------4-4s6---4---4-6---4h6---6-7v-6-4-----------------------------------|
A|----7-----------7----------------------7-4v------4-7-4-7-7---------------|
E|--7--------------------------------------------7-------------------------|

e|-------------------------------------------------------------------------|
B|-------------------------------------------------------------------------|
G|------------------------------------------------------9-8-9--------------|
D|--------------------6v-7-6--------6-------6--6-6-9-6---------------------|
A|-7h9p7----------7-9--------7-9v-----9-7-9--------------------------------|
E|-------7v---7h9----------------------------------------------------------|

e|-------------------------------------------------------------------------|
B|--7-----------7------------------s9-9--2-2--0-0--------------------------|
G|----9-------6---6-------6---4s6--s9-9--2-2--1-1---1-2-1h2p1--------------|
D|--------9-9-------9-7-9-----6s7-----------------------------4-2----------|
A|----------------------------------------------------------------2--------|
E|-------------------------------------------------------------------------|

memory...           turns...
e|--------------------------------------------|
B|----12-11-9----10v-----10-9-7---------------|
G|------------11----------------9-6v----------|
D|-11-----------------------------------------|
A|--------------------------------------------|
E|--------------------------------------------|

A
Tonight your beauty burns
G#m     F#    
Into my memory
F#m
The wheel of heaven turns
A
Above us endlessly

        E
This is all the heaven we've got
F#m
Right here where we are
   A          E  
In our shangri-la        3x


e|---------------------------------------------------------------------|
B|---------------------------------------------------------------------|
G|------------------4--------------------------------------------------|
D|------2-2---2-4-6---6---4-6-7-6-2h4---2-------2----------------------|
A|--2-4-------------------------------4-----2-4---4-4-2-2v-------------|
E|---------------------------------------------

Big White Cloud chords – Mark Lanegan

 Mark Lanegan
"Big White Cloud"
Has God Seen My Shadow?
 smcclure09

standard tuning

Intro:

   E 
e--------------------------------------|
B--------------------8---10br8---------|
G--9br-7-9-----7-7h9---9-------9--7-9--|
D----------7h9-------------------------|
A--------------------------------------|
E--------------------------------------|

 E 
Here I stand, my back to the sea
 A 
A big white cloud, looking right down on me
 E 
Sound of sun, missing my eyes
 A 
Everythings clear, everythings bright

 E  
Big white cloud,
 B 
big white cloud
 A E 
Big white cloud on me
 E  
Big white cloud,
 B 
big white cloud
 A E 
Big white cloud on me

 A 
Time to kill, on the hill
 E 
Looking at bees, licking the trees
 A 
Looking for signs, and then the rain

 E 
Oh, how I love it,
 B 
Yes how I love it
 A E 
Oh, how I love it so.
 E 
Oh, how I love it,
 B 
Yes how I love it
 A E 
Oh, how I love it so.

 E 
After all is said and done
 A 
Everything, is just like it began
 E 
Days that came, years again
 A 
Came and went, once again


 E 
Oh, how I love it,
 B 
Yes how I love it
 A E 
Oh, how I love it so.
 E 
Yes, how I love it,
 B 
Oh, how I love it
 A E 
Oh, how I love it so.

 E 
Yes, how I love it,
 B 
Oh, how I love it
 A E 
Oh, how I love it so.

Chords used:

    E A B 
e--0--------
B--0--2--4--
G--1--2--4--
D--2--2--4--
A--2--0--2--
E--0--------

No Contestar chords – Mark Lanegan

 Mark Lanegan
"No Contestar"
Has God Seen My Shadow?
 smcclure09

standard tuning

 B 
Lay down your head in the shifting light
                  G 
When it starts to fade
                  A 
When it starts to fade
    B 
My mind plays a trick of a lethal kind
           G 
Drifting away
           A 
Drifting away
 B 
Now I can see I may have lived too long
              G 
Close to the bone
              A 
Close to the bone
  B 
When theres no knock upon the door
                G 
Youll know its me
             A 
When youre phone doesnt ring
 B 
Now as the day begins to die
         G 
You can call me
          A B 
When you call me theres no reply


Chords used:

    B G A 
e-----3--5--
B--4--3--5--
G--4--4--6--
D--4--5--7--
A--2--5--7--
E-----3--5--

To Valencia Courthouse Tabs by Mark Lanegan

 Mark Lanegan
"To Valencia Courthouse"
Has God Seen My Shadow?
 smcclure09

down ½ step

Intro:

   A             A             D             A
eb-------------I-------------I-------2-----I-------------|
Bb-------2-----I-------2-----I-----3---3---I-------2-----|
Gb-----2---2---I-----2---2---I---2-------2-I-----2---2---|
Db---2-------2-I---2-------2-I-0-----------I---2-------2-|
Ab-0-----------I-0-----------I-------------I-0-----------|
Eb-------------I-------------I-------------I-------------|

Vs:

   A             A             D             A
eb-------------I-------------I-------2-----I-------------|
Bb-------2-----I-------2-----I-----3---3---I-------2-----|
Gb-----2---2---I-----2---2---I---2-------2-I-----2---2---|
Db---2-------2-I---2-------2-I-0-----------I---2-------2-|
Ab-0-----------I-0-----------I-------------I-0-----------|
Eb-------------I-------------I-------------I-------------|

   A             A             D             Dsus2
eb-------------I-------------I-------2-----I-------0---------|
Bb-------2-----I-------2-----I-----3---3---I-----3---3-------|
Gb-----2---2---I-----2---2---I---2-------2-I---2-------2---2-|
Db---2-------2-I---2-------2-I-0-----------I-0-----------0---|
Ab-0-----------I-0-----------I-------------I-----------------|
Eb-------------I-------------I-------------I-----------------|

Chs:

   C             G             D             Dsus2
eb-------------I-------------I-------2-----I-------0-----|
Bb-------1-----I-------0-----I-----3---3---I-----3---3---|
Gb-----0---0---I-----0---0---I---2-------2-I---2-------2-|
Db---2-------2-I---0-------0-I-0-----------I-0-----------|
Ab-3-----------I-------------I-------------I-------------|
Eb-------------I-3-----------I-------------I-------------|

Turn-around:

   A             A
eb-------------I-------------|
Bb-------2-----I-------2-----|
Gb-----2---2---I-----2---2---|
Db---2-------2-I---2-------2-|
Ab-0-----------I-0-----------|
Eb-------------I-------------|

Lyrics:

Good thing have you gone away
Leaving those tears to dry
All good things got to go that way
Though I cant say why

But the rippling breeze
Magic mountains and all
Make for a beautiful day

You can open up the iron gates
You can get my mind to change a mood
And lately I have learned some things
From being distracted by you

Another go around the block
Another telephone call

Gone is the satellite, the one true believer
Gone is my broken ballerina
Remember the times that you had taken over
Bathed in a radiant lovers light

Til another day

Good thing have you gone away
Leaving those tears to dry
I know it goes that way
Though I cant say way

And I cant stand luck to fall
And I dont need nothing at all
It’s a beautiful day

Jesus All For Jesus chords – Mark Robin V2

 (capo 2)

 C F C 
Jesus, all for Jesus
       G 
All I am and have
                  Am G 
And ever hope to be
 C F C 
Jesus, all for Jesus
       G 
All I am and have
                  C Csus4 C 
And ever hope to be


 C 
All of my
            F C 
Ambitions, hopes, and plans
      G 
I surrender these
           Am G 
Into your hands
 C 
All of my
            F C 
Ambitions, hopes, and plans
      G 
I surrender these
           C Csus4 C 
Into your hands


          F 
For it's only in
                C 
Your will that I am free
          F 
For it's only in
                C G 
Your will that I am free

Wanderlust chords – Mark Knopfler

 -------------------------------------------------------------------------------

                          Mark Knopfler - Wanderlust
                        Sailing to Philadelphia (2000)
                           Written by Mark Knopfler

-------------------------------------------------------------------------------

Tuning: Standard

Chords used: 
 A  (003330)
 F#m  (244222)
 D  (000232)           
 E  (022100)          
 G  (320033)
 C#  (004232)


 A F#m 
  Big black cloud 
 D E 
  On a yellow plain
 A F#m 
  Sure enough it
 G D 
  Looks like rain
 A F#m     
  Packin' up all our
 D C# 
  Faith and trust
 D C# F#m 
     Me and the wanderlust


 A F#m 
  Open window
 D E 
  Empty bed and chair
 A F#m 
  Who's that callin'?
 G D 
  Ain't nobody there
 A F#m 
  I look behind me and I,
 D C# 
  See there's just
 D C# F#m 
     Me and the wanderlust


 A F#m 
  Dead of night, ah
 D E 
  I had a dream
 A F# 
  Sky was bright yes and the
 G D 
  Fields were green
 A F#m 
  It was down the road
 D C# 
  In a cloud of dust
 D C# F#m 
     Me and the wanderlust


 A F#m 
  And I'm on the edge
 D E 
  Of an endless fall
 A F#m 
  Sure enough now
 G D 
  He's come to call
 A F#m   
  Got to go now
 D C# 
  Get on that bus
 D C# F#m 
     Me and the wanderlust