Tag: marling

Daisy Tabs – Laura Marling

 Hi!  ever so please forgive me, it's not entirely accurate 
Wrote it down from JustMoray on youtube who picked it up so nicely, many thanks to him! :-)



Laura Marling – Daisy 

Open D (DADF#AD)


Intro:
d------------------------------------------------------------------------| 
a------------------------------------------------------------------------| 
F#---------------------------------------1-----3----5----7---5---4-------| 
D---4---2---0----------------------------2-----4----5----7---5---5-------| 
A---------------4---2---0-------0--------0-----0----0----0---0---0-------| 
D---------------------------4-------2----2-----4----5----7---5---5----12-| 


Verse (2x):
d----------------------------------------------0----0----0----0----0-----0------| 
a-------------------------------------------------------------------------------| 
F#-------------------------------1-----3----5----7----8----7----5-----4---------| 
D---4--2--0----------------------2-----4----5----7----9----7----5-----5---------| 
A-------------4--2--0-----0------0-----0----0----0----0----0----0-----0---------| 
D----------------------4-----2---2-----4----5----7----9----7----5-----5-----12--| 

Daisy lives by the docks
Down at the white rock
Running an open home
Daisy lives by the sea
I only see Daisy 
When she wants to see me


Chorus:
d------------------0----0-----------------| 
a-----------------------------------------| 
F#---12----10----8----7----5----4---------| 
D----12----11----9----7----5----5---------| 
A----0-----0-----0----0----0----0---------| 
D----12----11----9----7----5----5---------| 

Daisy's alright
She's up all night
Down at the docks 
Running an open home



d------------------0---------0-------------------0---------------0----| 
a---------------------------------------------------------------------| 
F#-----8--------------7------------------8-------------------7--------| 
D------9--------------7------------------9-------------------7--------| 
A------0--------------0------------------0-------------------0--------| 
D------9--------------7------------------9-------------------7--------| 

I think that you look at her wrong, I think that you look at us all wrong


d------------------0----0----------------------------| 
a----------------------------------------------------| 
F#---8----7-------------8---7----5----4--------------| 
D----9----7-------------9---7----5----5--------------| 
A----0----0-------------0---0----0----0--------------| 
D----9----7-------------9---7----5----5------12------| 

A woman alone is not a woman undone


Play intro

Verse (2x)
d----------------------------------------------0----0----0----0----0-----0------| 
a-------------------------------------------------------------------------------| 
F#-------------------------------1-----3----5----7----8----7----5-----4---------| 
D---4--2--0----------------------2-----4----5----7----9----7----5-----5---------| 
A-------------4--2--0-----0------0-----0----0----0----0----0----0-----0---------| 
D----------------------4-----2---2-----4----5----7----9----7----5-----5-----12--| 

Daisy met a man from Sicily
Sailed in one day and told her 
Who she was going to be 
O did he look at her strange
For no one and nobody
Is Daisy going to change

Chorus
Daisy's alright 
She's up all night Down at the docks 
Running an open home
I think that you look at her wrong
I think that you look at us all wrong
Woman alone is not a woman undone


Bridge (2x)
d----------------9--7---------------7--0-------------------12------| 
a----9--------9--------9---7-----7--------5---4---5---7----12------| 
F#---8-----8---------------7-----7--------5---3---5---7----12------| 
D-------0---------------------0------------------------------------| 
A------------------------------------------------------------------| 
D------------------------------------------------------------------| 


Verse
Daisy's got a baby now
She called her Angelina 
So she'd stand out of the crowd
Daisy doesn't care

Your Only Doll Dora chords – Laura Marling V4

 This is not exactly how she plays it, but it seems to work! Feel free to add variation! 
I'm playing it so that for each measure, there are two counts of Am7 and two counts of Am.

Intro: Am7, Am (as many times as you'd like) 

                  Am7 Am Am7 Am Am7 Am Am7 Am 
I fell into the street, poison in my veins, clambered to my feet and into the night again
             Am7 Am Am7 Am Am7 Am D 
Back to my home, back to my owner, who screams at my tardiness
                     Am7 Am D Am D Am7 Am Am7 Am 
Put his hands to the sky, and says what can I do with a girl if she refuses to be mine?

                  Am7 Am Am7 Am Am7 Am Am7 Am 
In his bed I am queen, unobtainable me, sexual being, human with feelings
                Am7 Am Am7 Am 
The two are not me, the two will not be mine
      D Am D Am7 Am Am7 Am 
And what can you do with a girl if she refuses to be mine?

                     Am7 Am Am7 Am Am7 Am Am7 Am D 
Put his hand on my shirt, hand on my face, head to the wall, when you've broken your only doll
                   Am D Am7 Am 
And what will you do with a girl if she refuses to be alive?
                        Am7 Am D 
Now you've broken your only doll
                   Am D Am7 Am Am7 Am Am7 Am Am7  
And what will you do with a girl if she's refusing to be alive?

Love Be Brave Tabs by Laura Marling

 There was no tab for this so thought I'd work it out. Used the following YouTube Video: 


On the album is played with a capo on the second fret, in the video above without a Capo.
Standard Tuning: EADGBE

All the shapes are below, some parts I've been a bit lazy with the plucking, missing out 
notes here and there, but listen to the song and you'll be able to piece it all together.


Intro + verse (Part 1)

-----------------------------------|
-----3-----3----------3-----3------|
---2-----2-----2----2-----2-----2--|
-----------------------------------|
-------2-----0----------0----------|
-0----------------2-----------2----|

Just repeat this pattern for verse


"What will I do then?" (Part 2)

------------------------------------------------------|
-12----12--10-----10---8-----8---7-----7---10---------|
------------------------------------------------------|
-12----12--11-----11---9-----9---7-----7---11---------|
-0---0------0---0------0---0-----0--0-------0---------|
------------------------------------------------------|


Repeat Part 1

Repeat Part 2


"Love be Brave" (Part 3)


--------2----3-----------0-------------|
--------3----3----0h2-2---2---2--------|
--------4----4-------------------------|
--------4----5----2---2-----2---2------| Followed by Part 2, then repeat
-0--1---2----5----0--------------------|
-------------3-------------------------|


The repeat all the above until

 "Here comes a change over me" (Part 4)

--0h2------0h3-----------------------------------0------------------------------|
--3---3--------3---------3------3--------0h2--2----2------12----10--------------|
--2-----2--------2-----0------0------0------------------------------------------|
--0--------------------------------0-----2----2-------2---12----11--------------|
---------------------3------2------------0----------------0-----0---------------|
--------------------------------------------------------------------------------|

Repeat

Those are all the parts, apart from a slight variation on Part 2 where she moves all the 
way down the guitar neck adding to the end.

------------------|
--5----3----2-----|
------------------|
--5----4----2-----|
--0----0----0-----|
------------------|

Enjoy!

Born To Love Tabs by Laura Marling

 Tuning: CGCGGC

Working it out from ear so will update it tab when I have figured out the other bits.

Intro riff:                             Bridge Chord:
                                        The last chord in held and picked
C----------------------------      -------------------|
G-7-9-7-9-7-9-2/4-4/5----5---      -4-5-10------------|
G----------------------0-----      -------------------|
C--------------------------0-      -2-4-9-------------|
G----------------------------      -------------------|
C---------------------0------      -------------------|

Riff 2:

-9-7-------------------------|
-----9-7-5-7/9---------------|
-----------------------------|
-----------------------------|
-----------------------------|
-----------------------------|


Riff 3:

-------12-14-14b16r14--------|
-12-14-----------------------|
-----------------------------|
-----------------------------|
-----------------------------|
-----------------------------|

Bleed Me Dry Tabs by Laura Marling

 It's my first tab, for my new favorite song. Add fill-in in VERSE 2 and BRIDGE as you like.

Tuning: CGCGGE
No Capo

INTRO
E|------------------------------------|------------------------------------|
G|----5---7---9---10---9---7---5---5--|----4---4---4---4---5---5---5---5---|
G|------------------------------------|------------------------------------|
C|-------------------------------0----|------5-------5-------0-------0-----|
G|--5---7---9--10---9---7---5---------|--0-------0-------5-------5---------|
C|------------------------------------|------------------------------------|

E|------------------------------------|----------------------------------------------------|
G|----5---7---9---7--10---9---7---5---|----4---4---4---4---5---5---5---5---5---5---5---5---|
G|------------------------------------|----------------------------------------------------|
C|------------------------------------|------5-------5-------0-------0-------0-------0-----|
G|--5---7---9---7--10---9---7---5-----|--0-------0-------5-------5-------5-------5---------|
C|------------------------------------|----------------------------------------------------|

VERSE 1
E|------------------------------------|------------------------------------|
G|----5---7---9---10---9---7---5---5--|----4---4---4---4---5---5---5---5---|
G|------------------------------------|------------------------------------|
C|-------------------------------0----|------5-------5-------0-------0-----|
G|--5---7---9--10---9---7---5---------|--0-------0-------5-------5---------|
C|------------------------------------|------------------------------------|

E|------------------------------------|------------------------------------|
G|----5---7---9--10---9---7---5---5---|----4---4---4---4---5---5---5---5---|
G|------------------------------------|------------------------------------|
C|------------------------------0-----|------5-------5-------0-------0-----|
G|--5---7---9--10---9---7---5---------|--0-------0-------5-------5---------|
C|------------------------------------|------------------------------------|

I have left so many men asking why
Why I go and change my mind overnight

VERSE 2
E|--------5---------7-----8-----------|------------------------------------|
G|------5-----------------------------|----5---5---5---5---5---5---5---5---|
G|----5-------------------------------|------------------------------------|
C|------------------------------------|------0-------0-------0-------0-----|
G|--5---------------------------------|--5-------5-------5-------5---------|
C|------------------------------------|------------------------------------|

E|--------5---------7-----8-----------|------------------------------------|
G|------5-----------------------------|----5---5---5---5---5---5---5---5---|
G|----5-------------------------------|------------------------------------|
C|------------------------------------|------0-------0-------0-------0-----|
G|--5---------------------------------|--5-------5-------5-------5---------|
C|------------------------------------|------------------------------------|

They can't figure me out
They'll end themselves with doubt

VERSE 3
E|------------------------------------|------------------------------------|
G|----4---4---4---4---4---4---4---4---|----5---5---5---5---5---5---5---5---|
G|------------------------------------|------------------------------------|
C|------5-------5-------5-------5-----|------0-------0-------0-------0-----|
G|--0-------0-------0-------0---------|--5-------5-------5-------5---------|
C|------------------------------------|------------------------------------|

E|------------------------------------|------------------------------------|
G|----4---4---4---4---4---4---4---4---|----5---5---5---5---5---5---5---5---|
G|------------------------------------|------------------------------------|
C|------5-------5-------5-------5-----|------0-------0-------0-------0-----|

One Day Soon Tabs by Laura Marling

 -------------------------------------------------------------------------------
                             One Day Soon - Laura Marling
-------------------------------------------------------------------------------

Tuning: CGCGGC

Miss Marling usually slides between some of the chords and the strumming patterns
are often different from what I have put, however I'm fairly certain the notes themselves
are correct. She also seems to place an accent on the bottom C every now and again at
the start of each phrase but I think listening is the best way to work out strumming and 
accents etc.

http://m.youtube.com/watch?v=BQfG-6CpCgA

Introduction:

C|--0---0---0---0---0---0---0---0--|
G|--9---9---9--10--10--10--12--10--|
G|--0---0---0---0---0---0---0---0--|       x2
C|--7---7---7---9---9---9--12---9--|
G|--0---0---0---0---0---0---0---0--|
C|--0---0---0---0---0---0---0---0--|

Verse 1:

Ma, I'm gonna buy you
A new pair of shoes....

C|-0---0---0---0---0---0---0---0---0---0---0---0---0---0---0---0---0---0---0---0---0---0---0---0-|
G|-9---9---9--10--10--10--10--10---9---9---9--10--10--10--10--10---9---9---9--10--10--10--12--10-|
C|-0---0---0---0---0---0---0---0---0---0---0---0---0---0---0---0---0---0---0---0---0---0---0---0-|
C|-7---7---7---9---9---9---9---9---7---7---7---9---9---9---9---9---7---7---7---9---9---9--12---9-|
G|-0---0---0---0---0---0---0---0---0---0---0---0---0---0---0---0---0---0---0---0---0---0---0---0-|
C|-0---0---0---0---0---0---0---0---0---0---0---0---0---0---0---0---0---0---0---0---0---0---0---0-|

x2

Chorus 1:

One day soon I'm gonna be
A movie star....

C|-0---0---0---0---0---0---0---0---0---0---0---0---0---0---0---0---0---0---0---0---0---0---0---0--|
G|-9---9---9--10--10--10--10--10---9---9---9--10--10--10--10--10---9---9---9--10--10--10--12--10--|
G|-0---0---0---0---0---0---0---0---0---0---0---0---0---0---0---0---0---0---0---0---0---0---0---0--|  
C|-7---7---7---9---9---9---9---9---7---7---7---9---9---9---9---9---7---7---7---9---9---9--12---9--|
G|-0---0---0---0---0---0---0---0---0---0---0---0---0---0---0---0---0---0---0---0---0---0---0---0--|
C|-0---0---0---0---0---0---0---0---0---0---0---0---0---0---0---0---0---0---0---0---0---0---0---0--|

x2

I'm gonna buy you peace somehow....

C|--7---7---7---7---5---5---5---5---0---2---4---2---5---4---2---0---0---0---0---0---0---0---0---0--|
G|--7---7---7---7---5---5---5---5---0---0---0---0---0---0---0---0---4---4---4---0---0---0---0---0--|
G|--7---7---7---7---5---5---5---5---0---0---0---0---0---0---0---0---0---0---0---0---0---0---0---0--|
C|--7---7---7---7---5---5---5---5---0---2---4---2---5---4---2---0---6---6---6---0---0---0---0---0--|
G|--7---7---7---7---5---5---5---5---0---0---0---0---0---0---0---0---4---4---4---0---0---0---0---0--|
C|--7---7---7---7---5---5---5---5---0---0---0---0---0---0---0---0---0---0---0---0---0---0---0---0--|

x2

Verse 2, Chorus 2, Verse 3:

Same as original verse and chorus

Ending:

What if peace won't come?....

C|--0---0---0---0---0---0---0---0---0---0---0---0---0---0---0---0--|
G|--0---0---0---0---0---0---0---0---0---0---0---0---0---0---0---0--|
G|--0---0---0---0---0---0---0---0---0---0---0---0---0---0---0---0--|
C|--7---7---9---9--10--10---9---9---7---7---7---7---7---7---7---7--|
G|--9---9--10--10--12--12--10--10---9---9---9---9---9---9---9---9--|
C|--0---0---0---0---0---0---0---0---0---0---0---0---0---0---0---0--|

x2

Oh Mama, I'm gonna run....

C|--7---7---7---7---5---5---5---5---0---2---4---2---5---4---2---0---0---0---0---0---0---0---0---0--|
G|--7---7---7---7---5---5---5---5---0---0---0---0---0---0---0---0---4---4---4---0---0---0---0---0--|
G|--7---7---7---7---5---5---5---5---0---0---0---0---0---0---0---0---0---0---0---0---0---0---0---0--|
C|--7---7---7---7---5---5---5---5---0---2---4---2---5---4---2---0---6---6---6---0---0---0---0---0--|
G|--7---7---7---7---5---5---5---5---0---0---0---0---0---0---0---0---4---4---4---0---0---0---0---0--|