Tag: married

Peggy Sue Got Married Tabs – Buddy Holly

 PEGGY SUE GOT MARRIED

As recorded by Buddy Holly
(From the 1960 Album THE BUDDY HOLLY STORY, VOL. 2)


Words and Music by Buddy Holly
 Slowhand


Gtr I (E A D G B E) - 'Buddy Holly - Acoustic Guitar'
Gtr II (E A D G B E) - 'Don Arnone - Electric Guitar'


 Intro
  Q=144
  A       D/A               A       E
 4/4
  Gtr I
  E E E E  E   E   E   E    E E E E E E E E
|-0-0-0-0--2---2---2---2--|-0-0-0-0-0-0-0-0-|
|-2-2-2-2--3---3---3---3--|-2-2-2-2-0-0-0-0-|
|-2-2-2-2--2---2---2---2--|-2-2-2-2-1-1-1-1-|
|-2-2-2-2--0---0---0---0--|-2-2-2-2-2-2-2-2-|
|-0-0-0-0-(0)-(0)-(0)-(0)-|-0-0-0-0-2-2-2-2-|
|-------------------------|---------0-0-0-0-|


  A       D/A               A       E
  E E E E  E   E   E   E    E E E E E E E E
|-0-0-0-0--2---2---2---2--|-0-0-0-0-0-0-0-0-||
|-2-2-2-2--3---3---3---3--|-2-2-2-2-0-0-0-0-||
|-2-2-2-2--2---2---2---2--|-2-2-2-2-1-1-1-1-||
|-2-2-2-2--0---0---0---0--|-2-2-2-2-2-2-2-2-||
|-0-0-0-0-(0)-(0)-(0)-(0)-|-0-0-0-0-2-2-2-2-||
|-------------------------|---------0-0-0-0-||


 1st Verse
  A                  E
  Q  E E +E  E E E   Q  E E +E  E E E
|-0----0-(0)-0-0-0-|-0----0-(0)-0-0-0-|
|-2----2-(2)-2-2-2-|-0----0-(0)-0-0-0-|
|-2----2-(2)-2-2-2-|-1----1-(1)-1-1-1-|
|-2----2-(2)-2-2-2-|-2----2-(2)-2-2-2-|
|-0----0-(0)-0-0-0-|-2----2-(2)-2-2-2-|
|------------------|-0----0-(0)-0-0-0-|


  D/A                          A
   Q   E  E  +E   E   E   E    Q  E E +E  E E E
|--2------2--(2)--2---2---2--|-0----0-(0)-0-0-0--|
|--3------3--(3)--3---3---3--|-2----2-(2)-2-2-2--|
|--2------2--(2)--2---2---2--|-2----2-(2)-2-2-2--|
|--0------0--(0)--0---0---0--|-2----2-(2)-2-2-2--|
|-(0)----(0)-(0)-(0)-(0)-(0)-|-0----0-(0)-0-0-0--|
|----------------------------|-------------------|


  D/A                          A       E
   Q   E  E  +E   E   E   E    E E E E E E E E
|--2------2--(2)--2---2---2--|-0-0-0-0-0-0-0-0-|
|--3------3--(3)--3---3---3--|-2-2-2-2-0-0-0-0-|
|--2------2--(2)--2---2---2--|-2-2-2-2-1-1-1-1-|
|--0------0--(0)--0---0---0--|-2-2-2-2-2-2-2-2-|
|-(0)----(0)-(0)-(0)-(0)-(0)-|-0-0-0-0-2-2-2-2-|
|----------------------------|---------0-0-0-0-|


  A       D/A               A       E
  E E E E  E   E   E   E    E E E E E E E E
|-0-0-0-0--2---2---2---2--|-0-0-0-0-0-0-0-0--||
|-2-2-2-2--3---3---3---3--|-2-2-2-2-0-0-0-0--||
|-2-2-2-2--2---2---2---2--|-2-2-2-2-1-1-1-1--||
|-2-2-2-2--0---0---0---0--|-2-2-2-2-2-2-2-2--||
|-0-0-0-0-(0)-(0)-(0)-(0)-|-0-0-0-0-2-2-2-2--||
|-------------------------|---------0-0-0-0--||


 2nd Verse
  A                  E
  Q  E E +E  E E E   Q  E E +E  E E E
|-0----0-(0)-0-0-0-|-0----0-(0)-0-0-0-|
|-2----2-(2)-2-2-2-|-0----0-(0)-0-0-0-|
|-2----2-(2)-2-2-2-|-1----1-(1)-1-1-1-|
|-2----2-(2)-2-2-2-|-2----2-(2)-2-2-2-|
|-0----0-(0)-0-0-0-|-2----2-(2)-2-2-2-|
|------------------|-0----0-(0)-0-0-0-|


  D/A                          A
   Q   E  E  +E   E   E   E    Q  E E +E  E E E
|--2------2--(2)--2---2---2--|-0----0-(0)-0-0-0--|
|--3------3--(3)--3---3---3--|-2----2-(2)-2-2-2--|
|--2------2--(2)--2---2---2--|-2----2-(2)-2-2-2--|
|--0------0--(0)--0---0---0--|-2----2-(2)-2-2-2--|
|-(0)----(0)-(0)-(0)-(0)-(0)-|-0----0-(0)-0-0-0--|
|----------------------------|-------------------|


  D/A                          A       E
   Q   E  E  +E   E   E   E    E E E E E E E E
|--2------2--(2)--2---2---2--|-0-0-0-0-0-0-0-0-|
|--3------3--(3)--3---3---3--|-2-2-2-2-0-0-0-0-|
|--2------2--(2)--2---2---2--|-2-2-2-2-1-1-1-1-|
|--0------0--(0)--0---0---0--|-2-2-2-2-2-2-2-2-|
|-(0)----(0)-(0)-(0)-(0)-(0)-|-0-0-0-0-2-2-2-2-|
|----------------------------|---------0-0-0-0-|


  A       D/A               A
  E E E E  E   E   E   E    E E E E E E E E
|-0-0-0-0--2---2---2---2--|-0-0-0-0-0-0-0-0--||
|-2-2-2-2--3---3---3---3--|-2-2-2-2-2-2-2-2--||
|-2-2-2-2--2---2---2---2--|-2-2-2-2-2-2-2-2--||
|-2-2-2-2--0---0---0---0--|-2-2-2-2-2-2-2-2--||
|-0-0-0-0-(0)-(0)-(0)-(0)-|-0-0-0-0-0-0-0-0--||
|-------------------------|------------------||


   Bridge
    F                 A
    E E E E E E E E   E

Im Gonna Get Married chords – Lloyd Price

 I'm Gonna Get Married:Lloyd Price.
#1 R&B and #3 on BB Hot 100 on
ABC-PARAMOUNT Records in 1959.

INTRO:
  G C G 
(Johnny....Johnny....Johnny)..

CHORUS:
  G C D Am7 
(Johnny, you're too young)..but I'm gonna 
     D 
get married.
  D G                             
(You're so young)..my name she'll carry..
  Am7 C   
(ooo..ooo..you're too young, and Johnny, 
 E7 
you're so smart)..
     A G 
but not smart enough to hide an aching heart.

#1.
     C F C F 
How come my heart deserts me..(doot-doo-doo-doot)..
 G G C G 
burning full of love and desire?..(doot-doo-doo-doot)..
 A A D A                                
How come every time she kisses me..(doot-doo-doo-doot)..
    D Db C 
it sets my soul on fire?..(ooooo..oooo.)

#2.
 C C F C 
How come every time she leaves me..(doot-doo-doo-doot)..
    G E7 E7 A E 
it seems like I've lost a part?..(doot-doo-doo-doot)..
   A A D A 
I may be too young to marry..(doot-doo-doo-doot)..but
 D G 
not to hide an aching heart.

CHORUS:
  G C D Am7 
(Johnny, you're too young)..but I'm gonna 
     D 
get married.
  D G                             
(You're so young)..my name she'll carry..
  Am7 C   
(ooo..ooo..you're too young, and Johnny, 
 E7 
you're so smart)..
     A G 
but not smart enough to hide an aching heart.

#2.
 C C F C 
How come every time she kisses me..(doot-doo-doo-doot)..
    G G C G 
it thrills me from head to toe?..(doot-doo-doo-doot.)
 A A D A 
How come every time I see her..(doot-doo-doo-doot)..
    D Db C 
it lifts me right off the floor? (doooo..oooo.)

#3.
 C C F C 
How come every time I'm with her..(doot-doo-doo-doot)..
     G E7 E7 A E 
she whispers so soft and low?..(doot-doo-doo-doot)..
    A A D A 
It makes me want to jump and holler..(doot-doo-doo-doot)..
     D G 
and bump my head into a door.

CHORUS:
  G C D Am7 
(Johnny, you're too young)..but I'm gonna 
     D 
get married.
  D G                             
(You're so young)..my name she'll carry..
  Am7 C   
(ooo..ooo..you're too young, and Johnny, 
 E7 
you're so smart)..
     A G 
but not smart enough to hide an aching heart.

OUTRO:
  G D 
(Too young)..but I'm gonna get married.
            G 
(You're so young)..my name she'll carry.
  G D 
(You're too young)..but I'm gonna get married.
            G 
(You're so young)..my name she'll carry.
  G D 
(You're too young.)(Fade.)


A fifties smash from Kraziekhat.

The Wolf Is Getting Married Tabs by Sinead Oconnor

 Noticed there was no tab of this, so I had a bit of a hack. It is not complete, but I
believe the main chords played during the song are just E and A played in the positions
shown in the Intro section.
\ = slide
h = hammer

Intro: throughout the song I am pretty sure the same chords are played (E-A) although
the chorus may be different. The strumming pattern is similar in the verse, but switches
to all quavers/eighth notes before entering into the chorus.
E-4-----4-----4-----4-----4---4\--0-----0-----0-----0-----0---0---|
B-5-----5-----5-----5-----5---5\--2-----2-----2-----2-----2---2---|
G-4-----4-----4-----4-----4---4\--2-----2-----2-----2-----2---2---|
D-----------------------------------------------------------------|
A-----------------------------------------------------------------|
E-----------------------------------------------------------------|

Synth or guitar riff: this is played at the opening of the single version (or at least
the video version) which then suddenly cuts to the verse, which is a bit odd. Anyway, in
both the single and album versions it reappears at the end of the chorus and is 
introduced a bit more regularly. I think it is played as triplets, just give it a listen and you
will be fine!
  E                                   A
E----0-----2--0-----4--0-----2--0--------0-----2--0--------0-----2--0-----|
B-0-----0--------0--------0--------0--2-----2--------2--2-----2--------2--|
G-------------------------------------------------------------------------|
D-------------------------------------------------------------------------|
A-------------------------------------------------------------------------|
E-------------------------------------------------------------------------|

Guitar riff which is played to ease the change from A to E, and is also doubled in the
bass part (which otherwise just plays quavers/eighth notes which isn’t hugely exciting)
E------------------------|
B------------------------|
G------------------------|
D-----2------------------|
A-2h4-----4--------------|
E-------------0----------|

Of course this isn’t even close to the whole song. There’s that distorted guitar part
that gets played in the chorus, and I’ve missed out on the ending solo, but this sounds
alright. Feel free to correct any mistakes and add in anything I've missed. Most 
importantly, have fun with it!
- MM

Racehorse Get Married Tabs by Jordaan Mason And The Horse Museum

 Just one progression all the way through, strum the open chord shapes in the lulls 
(listen to the song for changes in the dynamics). Capo 3rd fret.


E||--------------------|---------------------|
B||--------0--------0--|--------0---------0--|
G||--------------------|---------------------|
D||----2--------2------|----2---------2------|
A||--3---3----3---3----|--3---3-----3---3----|
E||--------------------|---------------------|

E||--------------------|---------------------|
B||--------0--------0--|--------0---------0--|
G||--------------------|---------------------|
D||----4--------4------|----4---------4------|
A||--5--5-----5---5----|--5---5-----5---5----|
E||--------------------|---------------------|