Tag: matt

Sick Of It All chords – Matt York

 C#sus2 C#5 Asus2 A5 B5 Bsus2 C#sus2 C#5 C#sus2 C#5 C#sus2 C#5 

Well I'm sick of it all and I'm tired of you 

 Asus2 A5 B5 Bsus2 

and I don't want you around here no more

 C#sus2 C#5 C#sus2 C#5 C#sus2 C#5 

Sick of it all and I'm tired of you 

 Asus2 A5 B5 Bsus2 

and I don't want you around here no more

 C#sus2 C#5 Asus2 A5 B5 Bsus2 C#sus2 C#5 C#sus2 C#5 C#sus2 C#5 

From the start I knew my heart was on the line

 Asus2 A5 B5 Bsus2 C#sus2 C#5 C#sus2 C#5 C#sus2 C#5 

From the start I knew my heart was on the line again


Well I'm sick of it all and I'm tired of you 

 Asus2 A5 B5 Bsus2 

and I don't want you around here no more

 C#sus2 C#5 C#sus2 C#5 C#sus2 C#5 

Sick of it all and I'm tired of you 

 Asus2 A5 B5 Bsus2 

and I don't want you around here no more

 C#sus2 C#5 C#sus2 C#5 C#sus2 C#5 

From the start I knew my heart was on the line

 Asus2 A5 B5 Bsus2 C#sus2 C#5 C#sus2 C#5 C#sus2 C#5 

From the start I knew my heart was on the line

 Asus2 A5 B5 Bsus2 C#sus2 C#5 Asus2 A5 B5 Bsus2 C#sus2 C#5 Asus2 A5 B5 Bsus2

New To You chords – Matt York

 E A B E A B C#m E C#m E A B B A B B 


Gonna fall down again from end to end til I'm new to you.

 E 

Til I'm new to you.


 E A B E A B B B5/A B5/G B5/F# E A B   

I know all there is about crying over you.

 E A B    

I know the things that you do aren't new to you.

 C#m E 

I might be wrong but probably not.

 C#m E      

I can't be sold cuz I've been bought.

 C#m A B E A B   

I figure there's a chance that I'll fall down on the ground.

 E A B    

I feel like you might swim but me I'd probably drowned.

 C#m E 

I might be wrong but probably not.

 C#m E      

I can't be sold cuz I've been bought.

 C#m A B      

Gonna fall down again from end to end til I'm new to you.


 E A B 

and there won't be nothing about crying no more.

 E A B 

and there won't be nothing about lying about you.



 C#m E C#m E A B B A B B B B5/A B5/G B5/F# E A B   

I know all there is about crying over you.

 E A B    

I know the things that you do aren't new to you.

 C#m E 

Gonna fall down into a hole, 

 C#m E      

Gonna lay down do what I'm told


 C#m A B      

Gonna fall down again from end to end 

So I'm new to you


 E A B 

and there won't be nothing about crying no more.

 E A B 

and there won't be nothing about lying about you.









Lets Go To The Beach chords – Matt York

 Intro

G (with an occasional slide up to a B Flat

 G 
I don't know but I've been told that watching TV can make you old and I don't wanna be old.

 Em 

Lets go to the beach, lets go to the beach Lets go to the beach, lets go to the beach

 G  

I've been doing some thinking, yeah mixed between the drinking about moving away baby.

 Em 

Whatta say babe! me you and the beach.


 G G Em  

Honey when we get ourselves on down there to Cal-I-Forn-I-A 

 G G Em 

I'm gonna get me some of those muscles that you say that you crave.



 G G Em 

Not the clam kind, no the man kind 

 G G D C 

Oh honey I'd do that for you.

Guitar Solo:

 G Em G G 

I've been thinking west coast, maybe doing some singing and maybe some soaps, maybe both.

 Em 

I'd be singing songs like a modern Jack Wagner, singing songs like a modern Jack Wagner

 G G G 

I don't know about money, but honey I ain't got me none, but if I'm gonna be broke well I might as well be

                             Em 

Broken down here under the sun, under the sun babe!


 G  

Meet me at the beach


 D C G    

Oh honey you know it's true

 D C G 

You know I'd do it for you




















Catch And Release Tabs – Matt Simons V2

 -------------------------------------------------------------------------------
                             Catch And Release - Matt Simons
-------------------------------------------------------------------------------
: Psycow
 janbrust@freenet.de

Tuning: Standard / Capo 4th fret


Intro + Verse

e|---------0--------0--------0--------0--------------|-------0--------0--------0--------0--------------|
B|------1--------1--------1--------1--------1-----1--|----1--------1--------1--------1--------1-----1--|
G|o -0-----------------0-----------------0-----------|-2-----------------2-----------------2-----------|
D|o ----------2-----------------2--------------2-----|----------2-----------------2--------------2-----|
A|---------------------------------------------------|-------------------------------------------------|
E|---------------------------------------------------|-------------------------------------------------|


E|-------0--------0--------0--------0--------------|-------0--------0--------0--------0----------------|
B|----1--------1--------1--------1--------1-----1--|----1--------1--------1--------1--------1-----1----|
G|-4-----------------4-----------------4-----4-----|-4-----------------4-----------------4----------- o|
D|----------2-----------------2--------------------|----------2-----------------2--------------2----- o|x4 (2+2)
A|-------------------------------------------------|---------------------------------------------------|
E|-------------------------------------------------|---------------------------------------------------|



Pre-Chorus

E|---------0--------0--------0--------0--------------|-------1--------1--------1--------1--------------|
B|------1--------1--------1--------1--------1-----1--|----1--------1--------1--------1--------1-----1--|
G|o ----------0--------------------------0-----------|----------2-----------------2--------------2-----|
D|o -------------------2-----------------------2-----|-0-----------------0-----------------0-----------|
A|---3--------------------------3--------------------|-------------------------------------------------|
E|---------------------------------------------------|-------------------------------------------------|

                                                    1st ending
E|--------3-----5p3--------3--------3--------------|-------0--------0--------0--------0----------------|
B|----0-----------------0--------0--------0-----0--|----1--------1--------1--------1--------1-----1----|
G|----------0-----------------0--------------0-----|----------2-----------------0-------------------- o|
D|-2-----------------2-----------------2-----------|-3-----------------3-----------------3-----2----- o|2x
A|-------------------------------------------------|---------------------------------------------------|
E|-------------------------------------------------|---------------------------------------------------|

  2nd ending
E|-------0--------0--------0-----|--------|--------|                                                        
B|----1--------1--------1--1-----|--------|--------|                                                         
G|----------2--------------2-----|--------|--------|                                                       
D|-3-----------------3-----3-----|--------|--------|                                                      
A|-------------------------------|--------|--------|                                                         
E|-------------------------------|--------|--------|                                                     


Chorus

E|---------0--------0--------0--------0--------------|
B|------1--------1--------1--------1--------1-----1--|
G|o ----------0--------------------------0-----------|
D|o -------------------2-----------------------2-----|
A|---3--------------------------3--------------------|
E|---------------------------------------------------|


E|-------0--------0--------0--------0--------------|-----

The Crayon Song chords – Matt Pless

 This is just for the chords, not for the specific notes of the plucking pattern.


Capo 5

 C E F C F G C C E 
  It's 3 AM, and the conversation's spent.
       F C F G 
She's waiting on the bedside wrapped within the static wind and she's got
 C E 
  powders and pills, chasing thrills through dollar bills,
         F C F G 
tracing lines of her reflection with her senses so distilled
        Am G 
as she drifts on through this dream.
         C E Am 
She can share her medication but she can't outrun the rain when clearly
 F C F C F C F G 
  here she stands, with candy in her hands, she offers up the pixie dust and separates the sand,

and I'll say:

 F C F C

Heart Of Worship Tabs – Matt Redman

 -------------------------------------------------------------------------------
                      heart of worship - Matt Redman
-------------------------------------------------------------------------------
:

Key Of D
Tuning:E-A-D-G-B-e

e|---------------------------------------------------------------------------|
B|---------------------------------------------------------------------------|
G|--2----2--2------------------------------2--2-2------------2--2----2-------|
D|--0----0--0--0----2----4--2---2----0-0---0--0-0--0----2----0--0----0---0---|
A|-------------0----0----5--0---0----2-2-----------0----0----------------0---|
E|---------------------------------------------------------------------------|
   when the music fades all is swept away and I simply come longing just to
e|---------------------------------------------------------------------------|
B|---------------------------------------------------------------------------|
G|---------------------------------2---2-----2-------------------------------|
D|--2-----4---2-----2----0---0-----0---0-----0-----0-----2-------------------|
A|--0-----0---0-----0----0---0---------------------0-----0-------------------|
E|---------------------------------------------------------------------------|
   bring something thats of worth that will bless your heart 
e|---------------------------------------------------------------------------|
B|---------------------------------------------------------------------------|
G|--0----0-----0----------------------------------------0---0---0------------|
D|--0----0-----0---4----2---0--2----2--0--4---2---0-----0---0---0---4----2---|
A|-----------------0----0---0--0----0--0--0---0---0-2---------------0----0---|
E|--------------------------------------------------3------------------------|
   I'll bring you more than a song for a song in itself is not what you have 
e|---------------------------------------------------------------------------|
B|---------------------------------------------------------------------------|
G|----------0----0------0------------------------------------------------0---|
D|--0--2----0----0------0-----4-2--0--2----2-------0---4----2-----0------0---|
A|--0--0----------------------0-0--0--0----0-------0---0----0-----0--2-------|
E|-------------------------------------------------------------------3-------|
   required you search much deeper within through the way things appear You're
e|---------------------------------------------------------------------------|
B|------------------0--------------------------------------------------------|
G|---0--0----2---------2-----------------------------------------------------|
D|---0--0----0-0-0--0--0-----------------------------------------------------|
A|-------------0-0-----------------------------------------------------------|
E|---------------------------------------------------------------------------|
    looking into my heart
e|---------------------------------------------------------------------------|
B|------------------------------0--------------------------------------------|
G|-------2--2--2----2----------------2-----------------------0---------------|
D|-------0--0--0----0---0---0---0----0---4--2----0--2-----4--0-4----2-0-2----|
A|----------------------0---0------------5--4----2--4-----5----5----4-2-4----|
E|---------------------------------------------------------------------------|
chorus: I'm coming back to the heart of worship and it's all about You it's 
e|---------------------------------------------------------------------------|
B|----------------------------------------------0----------------------------|
G|------0--------------2---2-2----2-------------------2----------------------|
D|-4----2-4--2---2--0--0---0-0----0----0---0----0-----0----4---2---0---2-----|
A|-5------5--4---4--0------------------0---0---------------5---4---2---4-----|
E|---------------------------------------------------------------------------|
   all about Yo

Havent You chords – Matt Skiba And The Sekrets

 Intro

 D A G D A 

Verse

 D A 
There’s an angel waiting in the shadows
             G D A 
Behind that big black window watching over me
 D A 
And now I’m able to waltz through violent nightmares
                       G 
of killing sprees and bomb scares
 D A 
To kiss you on the cheek

Chorus 
   G D A 
I thought I lost it all the day that I lost you.
      D A 
It’s taken me until just now to find the truth
                              
You’ve always been here haven’t you?

 D A G D A 

Verse
           D A 
There’s a stranger inside of me named anger
                       G D A 
He worked for me, but danger was your middle name
 D A 
Now I’m able to waltz through violent nightmares
                        G 
of shattered glass and road flares
 D A 
to kiss you on the cheek

Chorus
   G D A 
I thought I lost it all the day that I lost you
      D A 
it’s taken me until just now to find the truth
                               
You’ve always been here haven’t you?

Bridge/Ending
 G D A  x2

 G D A 
I thought I lost it all the day that I lost you
 G D A 
It’s taken me until just now to find the truth
 G D A 
I thought I lost it all the day I lost you
 G D G A 
it’s taken me until just now to find the truth
 G D A 
I thought that I lost it all the day that I lost you
 G D A 
it’s taken me until just now to find the truth
        D A D 
You‘ve always been here haven’t you?

Kingdom Underground Tabs – Matt Duke

 -------------------------------------------------------------------------------
                             SONG NAME - Band Name
-------------------------------------------------------------------------------
: Jonathan Kramarsky
 Jonkramarsky
========NOTE======
This is merely the notes and brief strumming and picking patterns. This song is best learned watching 
Matt and looking at the tab. try it slow at first, you will get it!
Tuning: D A D G B E
1st  part of verse
d|------------0--------------------------------------------------------- ----|
B|---------------------------------------------------------------------------|
G|---2--------------2-------5------------------------------------------------|
D|-0---0----------0---0------------------------------------------------------|
A|-------3/5------------3/5--------------------------------------------------|
D|--------------0-------------0----------------------------------------------|
2nd part of verse, shows up once in a while
d|---------------------------------------------------------------------------|
B|---------------------------------------------------------------------------|
G|---------------------------------------------------------------------------|
D|----10-10-10---10-10-10-----12-12-12---------------------------------------|
A|---------------------------------------------------------------------------|
D|--8----------7-----------10----------0-(continue with rhythm as above)-----|
    D  D U  U  D D  U  U   D   D  U  U  D
Chorus similar strumming as 2nd part of verse
d|---------------------------------------0------------------------- ---------|
B|---------------------------------------------------------------------------|
G|---2-2-2----2-2-2---4-4-4------2-------------2-------5---------------------|
D|-----------------------------0---0---------0---0----------(and repeat as needed|
A|-3---------------------------------3/5-----------3/5-----------------------|
D|---------4--------5--------0-------------0-------------0-------------------|
SOLO!!!!!! LISTEN TO THE SONG TO GET TIMING THIS IS JUST THE NOTES
d|-0--------------------------------------------------------------------------|
B|-0--------------------------------------------------------------------------|
G|-0---2-h3-p2---------2----2-h3-p2-------------------------------------------|
D|-0------------4---5---------------4---5--0----------------------------------|
A|-0--------------------------------------------------------------------------|
D|-0(carry this chord though out and kind of strum throuugh the solo with this chord|
2nd part of solo he starts singing during it too. also with heavy open struming
d|---------------------------------------------------------------------------|
B|---------------------------------------------------------------------------|
G|-------10-----9-----12----11------(repeat)---------------------------------|
D|-9/12-----12----10-----14----12--------------------------------------------|
A|---------------------------------------------------------------------------|
D|---------------------------------------------------------------------------|
After that solo you go back to chorus again. 
Have Fun! very difficult song!

************************************

| /   slide up
| \   slide down
| h   hammer-on
| p   pull-off
| ~   vibrato
| +   harmonic
| x   Mute note
| b   Bend
| pb  Pre-bend
| br  Bend release
| pbr Pre-bend release
| brb Bend release bend

************************************
Reign o'er with your fiery crown
Sordid kingdom underground
All of the guilty, all of the proud
Fill your kingdom underground

Father, please
Why have you forsaken me?
Father, please
What could I have done to thee?

Sweet reprisal's on the bound
All your armies gather 'round
Fervent cheering from the crowd
As he snakes up through the ground

Father, please
Spare me your mercy and let me be
Father, please
I'll get mine - just you wait and see

I wait for the seventh da

Wasted Love chords – Matt Mcandrew V2

 Abm F# E B 

[Versus 1]

 Abm F# E B     
So I'm not supposed to love you no more
 Abm F# E B     
I guess I'm not supposed to care
 Abm F#           
I held you so close, now I'm holding a ghost
 E B     
How can love just disappear?
 Abm F#          
And where does it go when it's over?
                     E B     
I know that it's somewhere out here

[Chorus]

 Abm F# E B     
Has anybody seen all my wasted love?
 Abm F# E B     
I've been down every street, no, I won't give up
 Abm F# E B     
If I have to die trying to justify, that's how it's gonna be
 Abm F# E B     
Has anybody seen all my wasted love?

[Versus 2]

 Abm F# E B     
It's late, I'm drunk and I'm running on empty tonight
 Abm F# E B     
Baby, I'm chasing my shadow around
 Abm F#             
Like smoke cigarettes I inhale these regrets
 E B     
I can't change what I've become
 Abm F#           
There's pain and there's glory, but this is my story
 E B     
I'm asking everyone

[Chorus]

 Abm F# E B     
Has anybody seen all my wasted love?
 Abm F# E B     
I've been down every street, no, I won't give up
 Abm F# E B     
If I have to die trying to justify, that's how it's gonna be
 Abm F# E B     
Has anybody seen all my wasted love?

[Bridge]

 Abm F# E B     
Knocking down doors and I'm pounding the pavement
 Abm F# E B     
Lie at your mercy, will somebody save me? Save me?

[Chorus]

 Abm F# E B     
Has anybody seen all my wasted love?
 Abm F# E B     
I've been down every street, no, I won't give up
 Abm F# E B     
If I have to die let me testify, that's how it's gonna be
 Abm F# E B     
Has anybody seen all my wasted love?
 Abm F# E B     
Bring it back to me, all my wasted love

Wasted Love chords – Matt Mcandrew

 ---------------------------Matt McAndrew--------------------------
---------------------------Wasted Love----------------------------

Standard Tuning
 
Intro: | Abm F# E B |

-------------Verse 1-----------------

 Abm F# E B      
So, I'm not supposed to love you no more,
 Abm F# E B 
I guess, I'm not supposed to care
 Abm F# E B 
I held you so close now I'm holding a ghost how can love just disappear
 Abm F# E B 
And where does it go when It's over I know that it's somewhere out here


-------------Chorus-----------------

 Abm F# E B        
Has anybody seen all my wasted love?
 Abm F# E B     
I've been down every street no I wont give up
 Abm F# E B   
If I have to die trying to justify that's how it's gonna be
 Abm F# E B        
Has anybody seen all my wasted love? 


-------------Verse 2-----------------

 Abm F# E B 
It's late, I'm drunk and I'm running on empty tonight 
 Abm F# E B 
Maybe I'm chasing my shadow around
 Abm F# E B 
Like smoked cigarettes I inhale these regrets I can't change what I've become
 Abm F# E B 
There's pain and there's glory but this is my story I'm asking everyone 


-------------Bridge-----------------

 G B 
Knocking down doors and I'm pounding the pavement 
 G F# 
Lie at your mercy will somebody save me, Save Me
      

Enjoy! :)

Ha Indul A Dicséret – Seeing You chords – Matt Redman

 [Intro]
 C 

[Vers ]
 C 
Itt van a perc, hogy lássalak Téged
     Am G F 
Ha szellemed átjár, száll a dicséret, Benned élhetek
  C 
Válaszolok, mert hallom Igédet
 Am G F 
Látom a szíved, s mind, ami vagy, imádatodra hív

[Előkórus]
                  F G C 
Ott nem szólhat dal, 'hol fényed még nem ég
              F G C 
Itt vagyok Uram, hát hadd lássalak még
               F C Am D 
Rám ragyog a Menny, Lényed elér
              F Dm C 
Itt vagyok Uram, hát hadd lássalak még

[Kórus]
                F 
Ha indul a dicséret
                C 
Vágyunk látni Téged
 F C 
Így felel szívünk drága szavadra
                F 
Ha indul a dicséret
                C 
Szívünk látja Fényed
 F Dm C 
Így felel szívünk áldozatodra

A Kereszt Mondta El – The Cross Has Said It All chords – Matt Redman

 [Intro 4x]
 G C G D 

[Vers 1]
    G Am Hm C 
A kereszt mondta el, a kereszt mondta el
    G Am Hm C 
Tagadni többé nem lehet, mert megmutatta hogy szeret
    D C Hm C 
A keresztből megérthető, az Úr Jézus a megmentő
  D C Hm Am 
Vele üzente a hű Atya, "Jöjj gyermekem, jöjj haza!"

[Kórus]
  G C G D 
Kegyelmed Jézus felénk olyan nagy
   G C G D 
Amilyen távol a földtől a nap
     G C G D 
S ahogy nyugattól messze napkelet
    G C G D    
A bűne-ink olyan messze veted

[Vers 2]
    G Am Hm C 
A kereszt mondta el, a kereszt mondta el
    G Am Hm C 
Én akkor ismertelek meg, mikor megláttam a kereszted
      D C Hm C 
Ahol értünk folyt a drága vér, váltság minden bűnünkért
  D C Hm Am 
Porból vagyunk és por leszünk, de Te mégis meghaltál értünk

[Kórus]

[Átvezetés]
 C Em 
 Oly hű, oly jó, vagy Te, Oly hű, oly jó, vagy Te
 C D 
 Oly hű, oly jó, vagy Te, Oly jó

[Kórus]

Catch Release chords – Matt Simons

 Intro: C Am Em 2x   CAPO 4



 C                          
There's a place I go to 
 Am                         
where no one knows me  
 Em 
It's not lonely 
                   C 
It's a necessary thing 
                    
It's a place I made up  
 Am                        
Find out what I'm made of 
 Em 
The nights are stayed up 
                              C 
Counting stars and fighting sleep 




 C Dm 
Let it wash over me 
                   Em 
Ready to lose my feet 
                    F C 
Take me on to the place where one reviews life's mistery 
                     Dm 
Steady on down the line
                      Em  
Lose every sense of time
                     F                              
Take it all in and wake up that small part of me 

Day to day I'm blind to see 

And find how far 
               C 
to go 

Chorus

 C Am 
Everybody got their reason
                     Em 
Everybody got their way 
                            F 
We're just catching and releasing 
                                 C 
what builds up throughout the day 
                     Am 
It gets into your body 
                                 Em 
And it flows right through your blood 
                         F 
We can tell eachother secrets 
                          C 
and remember how to love


 C               
Dadumdadadadamdam
 Am              
Daa Daa dam dam
 Em            
daa daa dam dam

 C               
Dadumdadadadamdam
 Am    
Daa Daa dam dam
 Em            
daa daa dam dam  





  C                      
There's a place I'm going 
 Am              
no one knows me 
 Em 
If I breathe real slowly 

let it out and let it in 
 C                     
They can be terrifying
 Am                 
to be slowly dying 
 Em 
Also clarifying      
                         C 
the end where we begin

 C Dm 
Let it wash over me 
                   Em 
Ready to lose my feet 
                    F C 
Take me on to the place where one reviews life's mistery 
                     Dm 
Steady on down the line
                      Em  
Lose every sense of time
                     F                              
Take it all in and wake up that small part of me 

Day to day I'm blind to see 

And find how far 
               C 
to go 

Chorus

 C Am 
Everybody got their reason
                     Em 
Everybody got their way 
                            F 
We're just catching and releasing 
                                 C 
what builds up throughout the day 
                     Am 
It gets into your body 
                                 Em 
And it flows right through your blood 
                         F 
We can tell eachother secrets 
                          C 
and remember how to love


 C               
Dadumdadadadamdam
 Am              
Daa Daa dam dam
 Em            
daa daa dam dam

 C               
Dadumdadadadamdam
 Am              
Daa Daa dam dam
 Em            
daa daa dam dam  




 C Am 
Everybody got their reason
                     Em 
Everybody got their way 
                            F 
We're just catching and releasing 
                                 

Because He Lives chords – Matt Maher

 Matt Maher
Because He Lives
no capo


Intro:    Am F C Am F C 

Verse 1
      Am F C 
I believe in the Son
      Am F C 
I believe in the risen One
      Am F C 
I believe I overcome
        F Am G 
By the power of His blood



CHORUS
  F G Am 
Amen, Amen
 G C G C 
I’m alive, I’m alive
   Am G 
Because He lives
  F G Am 
Amen, Amen
 G C G C F G 
Let my song join the one that never ends
             Am 
Because He lives

(Play Intro once)

Verse 2
       Am F C 
I was dead in the grave
       Am F C 
I was covered in sin and shame
       Am F C 
I heard mercy call my name
    F Am G 
He rolled the stone away

(CHORUS)

BRIDGE
             C 
Because He lives
 F G 
I can face tomorrow
             C 
Because He lives
 F G 
Every fear is gone
  C F Am G F 
I know He holds my life my future in His hand

CHORUS
  F G Am 
Amen, Amen
 G C G C 
I’m alive, I’m alive
   Am G 
Because He lives
  F G Am 
Amen, Amen
 G C G C F G 
Let my song join the one that never ends
  F G Am 
Amen, Amen
 G C G C 
I’m alive, I’m alive
   Am G 
Because He lives
  F G Am 
Amen, Amen
 G C G C F G 
Let my song join the one that never ends
             Am 
Because He lives

God Bless!

A River Through It chords – Matt Stell

 Standard Tuning
CAPO 2

Chords used:
E:   (-0-2-2-1-0-0-)
A:   (-0-0-2-2-2-0-)
B:   (-2-2-4-4-4-2-); w/ occasional hammer on: (-2-2-4-4-5-2)
Cm:  (-4-4-6-6-5-4-)
F#m: (-2-4-4-2-2-2-)
G#m: (-4-6-6-4-4-4-)

Intro: E,A,E,A

Verse 1

 E 
My home, ain’t much to it
 A 
Just some rollin hills, and a river through it
 E 
But when the time is right, you can sit outside
 A 
Hear the crickets reminisce’n in the moonlight
 Cm A 
But watch for cotton mouths, in the cain break
 Cm A B 
They’re thicker than the air on a summer’s day 

Chorus

       E B E A 
And I know where I belong
         E B A 
And the steady currents strong
            F#m G#m A 
No matter where I am, my heart’s gonna flow back to it
(No Chords)
Like there’s a river through it

Instrumental: E,A

Verse 2

 E 
Plan some extra time, if you come to visit
 A 
Cause from the interstate, it’s gonna take a minute
 E 
Pass the old gin, and all the pine trees
 A 
Hay meadows dancing to the rhythm of the evening breeze
 Cm A 
My life is made of, nights like these
 Cm A B 
It ain’t much but I’ve never been hard to please

Chorus

       E B E A 
And I know where I belong
         E B A 
And the steady currents strong
            F#m G#m A 
No matter where I am, my heart’s gonna flow back to it
(No Chords)
Like there’s a river through it

Bridge

 Cm A E 
To most folks she’s a view from an airplane
 CM A B 
But those hardwood hills, everyday are call'n my name

Chorus

       E B E A 
And I know where I belong
         E B A 
And the steady currents strong
            F#m G#m A 
No matter where I am, my heart’s gonna flow back to it (x2 for outro)
(No Chords)
Like there’s a river through it

Outro: E,A,E,A,E

Courtney Acoustic chords – Matt Toka

 G Dsus2 
You make me want to grow my hair out move to Seattle and start a band
 Em C 
with David Grohl and Chris Novoselic
 G Dsus2 
You make me want to bring back flannels, converse and ripped up jeans
 Em C 
You make me feel on the cover of a magazine

 Am C G Dsus2 
And there's no one that I'd rather spend my life with
 Am C 
There's only one question I have to ask

 G Dsus2 
Courtney I love you
 Em C 
will you be my heroin
 G Dsus2 
Courtney I love you
 Em C 
you make me want to visit heaven

 G Dsus2 
Let's pretend we're two junkies sipping tea with mudhoney
 Em C 
soaked in bleach in all apologies

 G Dsus2 
You've got a heart shaped box and I've got a diamond ring
 Em C 
But I'm scared to death that you'll be the death of me


 Am C G Dsus2 
And there's no one that I'd rather spend my life with
 Am C 
There's only one question I have to ask

 G Dsus2 
Courtney I love you
 Em C 
will you be my heroin
 G Dsus2 
Courtney I love you
 Em C 
you make me want to visit heaven

           G Dsus2 
Wait nevermind I see a gun
            Em C 
with the needle and the damage done
           G Dsus2 
Wait nevermind I see a gun
            Em C 
with the needle and the damage done

On Top Of The World chords – Matt Montgomery

 Intro

 G Bm Em C G Bm Em C G Bm Em 
Front of the line, plenty of time
 C 
We've waited here for so long 
 G Bm Em 
Bags have been packed, take one look back 
 C Em 
Smile and wave a goodbye 
        A7 Em A7 C    ( Cm )
It's yours, it's mine, the weather is fine 

So take a step to the sky 


 G Bm Em 
This time we're there 
 Cm G 
Us on top of the world 
       Bm Em 
So sweet, so fair
 Cm G Em 
We're on top of the world 
         B C G 
with no gravity at all 


( G )           Bm Em 
So pretty in white, dazzles my site 
 C G 
it's been that way all along 
                 Bm Em 
Friends are all here, their love so near
 C Em 
voices burst out in song 
        A7 Em A7 C    ( Cm )
It's yours, it's mine, the weather is fine 

So take a step to the sky 


 G Bm Em 
This time we're there 
 Cm G 
Us on top of the world 
       Bm Em 
So sweet, so fair
 Cm G Em 
We're on top of the world 
         B C        
with no gravity at all  


Instrumental    G Em B7 G D/F# Em D/F# 
              (What was will always be)
               
                G D/F# Em D/F# G Em B7 A7 Em A7 C    ( Cm )
It's yours, it's mine, the weather is fine 



Solo    G Bm Em C G Bm Em C Em A7 Em A7 C Cm G Bm Em 
This time we're there 
 Cm G 
Us on top of the world 
       Bm Em 
So sweet, so fair
 Cm G D/F# Em 
We're on top of the wooo--ooorld 
 D/F# G D/F# Em 
We're on top of the wooo--ooorld 
 D/F# G D/F# Em 
We're on top of the wooo--ooorld 
 D/F# G       
We're on top of the world 

        ( B )       end with  C        
with no gravity 

I Will Not Take My Love Away chords – Matt Wertz

 G C G 
I will not take my love away
         Am Em C D 
When praises cease and seasons change
             G C G 
While the whole world turns the other way
 G D G 
I will not take my love away


 G C G 
I will not leave you all alone
         Am Em C D 
When striving leads you far from home
       G C G 
And there's no yield for what you've sown
 G D G 
I will not leave you all alone

 Em D C Em D C 
Oh...               Yeah...

 G C G 
I will give you what you need
      Am Em C D 
In plenty or in poverty
 G C G 
Forever, always, look to me
 G D Em 
And I will give you what you need
 G D G 
I will not take my love away

Falling Into You chords – Matt Willis V2

 -----------------------------------------------------------------------------
                   Falling Into You - Matt Willis
-----------------------------------------------------------------------------
: Fabio BlenderBR
 - Give your rating and help others users to find the best versions of the songs -

() > Lyrics sang by Matt Willis in the background


Verse:
 C C/B 
  I don't want to fight
               Asus2 
Don't want to be afraid
       G F G C 
I'm falling straight into you
 C C/B 
  Are everything 
         Asus2 
That I need right now
    G F G C 
I have fallen for you

 C C/B 
  Turn out the lights
                  Asus2 
Can't take those eyes right know
    G F G C 
I have fallen for you

(Turn off the lights 'cause you're killing me
Can't take the eyes that you're giving me
We've hurt each other before
Can't take the pain anymore)

 C C/B 
  Turn out the lights
           Asus2 
I need to know to right now
     G F G Bb 
If you have fallen for me

(Turn out the lights 'cause I don't wanna hide
I gotta know you are by my side
Don't wanna lose you now
When we're so good together)


Pre Chorus:
 Bb 
'Cause this time it's for real

'Cause this time it's for real


Chorus:
 C G F 
Falling into you, I'm falling into pieces
 C G F 
Just got to tell you but I'm scared you won't believe it
      C G A F 
And one day I'll wake up to find that we broke up
 C G F 
I don't want that for you, I don't want that for me

I just want to stay here


Verse 2:
 C C/B 
I feel that it's time 
               Asus2 
to say those three words to you
  G F G C 
Words are all that I have

 C C/B 
Don't walk away
                Asus2 
don't want to feel no pain
 G F G Bb 
That's okay I got you

(Don't walk away girl I'm begging you
You gotta hear what I'm telling you
Don't want to feel your pain
'Cause I believe in you
And I hope you feel it too)


Chorus:
 C G F 
Falling into you, I'm falling into pieces
 C G F 
Just got to tell you but I'm scared you won't believe it
      C G A F 
And one day I'll wake up to find that we broke up
 C G F 
I don't want that for you, I don't want that for me

I just want to stay here


Bridge: 

C (Hold)
 A C G    2x


Chorus:
 C G F 
Falling into you, I'm falling into pieces
 C G F 
Just got to tell you but I'm scared you won't believe it
      C G A F 
And one day I'll wake up to find that we broke up
 C G F 
I don't want that for you, I don't want that for me
 G 
I just want to stay here

 C G F 
Falling into you, I'm falling into pieces
 C G F 
Just got to tell you but I'm scared you won't believe it
      C G A F 
And one day I'll wake up to find that we broke up
 C G F 
I don't want that for you, I don't want that for m

10000 Reasons Bless The Lord chords – Matt Redman V7

 10,000 Reasons (Bless the Lord) - Matt Redman chords

NOTE: after more instruments come in (later choruses), 7ths (and 9ths) get thrown in often in the recording.

[INTRO]
 C G D/F# Em C G Dsus D 

[CHORUS]
           C G 
Bless the Lord oh my soul
 D/F# Em 
Oh my soul
 C G Dsus D 
Worship His Holy name
           C Em 
Sing like never before
 C D Em 
Oh my soul
      C D 
I'll worship Your Holy name

[TRANSITION]
 C/G G C/G G 

[VERSE 1]
     C G 
The sun comes up
        D Em C 
It's a new day dawning
              G D Em 
It's time to sing Your song again
     C G 
Whatever may pass
        D            Em (boom boom boom...) C
And whatever lies before me
           G 
Let me be singing
          Dsus D G Gsus G Gsus G 
When the evening comes

[CHORUS]

[TRANSITION 2]
 C/G G C/G D/G G 

[VERSE 2]
        C G 
You're rich in love
            D/F# Em 
And You're slow to anger
      C G 
Your name is great
          D Em7 
And Your heart is kind
     C G 
For all Your goodness
       D        Em (boom boom boom...) C
I will keep on singing
              G 
Ten thousand reasons
        Dsus D G Gsus G Gsus G 
For my heart to find

[CHORUS]

Bless you, Lord...

[INSTRUMENTAL]
 C G D/F# Em C G Dsus D C Em C D Em C D G 

[VERSE 3]
     C G 
And on that day
         D/F# Em 
When my strength is failing
     C G 
The end draws near
        D/F# Em 
And my time has come
 C Em 
Still my soul will
          C        Em (boom boom boom...) Cadd9
Sing Your praise unending
              G 
Ten thousand years
          Dsus D G 
And then forevermore
 Gsus G Gsus G 
Forevermore

[CHORUS]

[FINAL CHORUS]
           C G 
Bless the Lord oh my soul
 D/F# Em 
Oh my soul
 C G Dsus D 
Worship His Holy name
           C Em 
Sing like never before
 C D Em 
Oh my soul
      C D Em7 
I'll worship Your Holy name
            C D Em7 
Yes I will worship Your Holy name
            C D 
Lord, I'll worship Your Holy name

[TRANSITION 3]
 C G D/F# Em C G Dsus D 

[OUTRO]
           C Em 
Sing like never before
 C D Em 
Oh my soul
      C D Em7 
I'll worship Your Holy name
              C D Em7 
Jesus I will worship Your Holy name
 C</