Tag: may

Skeleton Key chords – Kenzie May

 Intro:  F#m E Bm D E F#m 
I feel the shivers shaking every knuckle
As I unbuckle  I hope the tussle
 E 
Will drown out every word you whisper
This weight is nothing, is confusing fucking
 Bm 
For making love annd woah there, sir

Oh, they're so close pressed against my skin
 D E 
So far from getting under it


 F#m 
You're telling me gonna take your time
 E 
Bit your lip like you know what's on my mind
But it locked itself outside, steel bars on my thoughts tonight
 Bm 
Waves of cotton and you throw me over
 D 
Hold our breath in, we're going under, under, under


 Bm A 
I won't tremble, I won't make a sound
 E D 
I am all yours from the collarbone down


 F#m E 
All you gotta do is all you wanna do to me
                                                        Bm 
Tell me where you want me, tell me and I'm on my knees
 D 
All you gotta do is all you wanna do to me
                                                        F#m 
You come first, do your worst, you got the skeleton key


 F#m 
Trouble separating limb from limb
In the heat pealing skin from skin
 E 
The shadow of a silhouette
Springs the motion on our mattress bed
 Bm 
You're asking me did I arrive alright
                   D 
Afraid I won't be able to make it tonight, tonight


               Bm A 
But I won't tremble, I won't make a sound
            E D 
I am all yours from the collarbone down




 F#m E 
All you gotta do is all you wanna do to me
                                                       Bm 
Tell me where you want me, tell me and I'm on my knees
 D 
All you gotta do is all you wanna do to me
                                                         Bm 
You come first, do your worst, you got the skeleton key



           D F#m 
You don't need my words, I gave you the key
                             E D 
Bones are locking up my muscles tighten, pins and needles
 F#m 
I know you need this more than me, kid
                            E F#m 
 Bones are locking up your muscles tighten and release



 F#m E 
All you gotta do is all you wanna do to me
                                                     Bm 
Tell me where you want me, tell me and I'm on my knees
 D 
All you gotta do is all you wanna do to me
        F#m 
You come first, do your worst, you got the skeleton key
 E 
You got the skeleton key
           Bm 
Skeleton key
            D E 
Skeleton key

Maggie May chords – Rod Stewart V7

 
Intro =  D Em7 G D D Em7 G D  + 2 strums on  Bm  

Verse 1
 A G D 
Wake up Maggie I think I got something to say to you
      A G D 
It's late September and I really should be back at school
   G D A 
I know I keep you amused but I feel I'm being used
    Em F#m Em A7sus4 A7 
Oh Maggie I couldn't have tried any more
    Em A Em A 
Ya lured me away from home just to save ya from being alone
    Em A G D 
Ya stole my heart and that's what really hurts

Verse 2
     A G D 
The morning sun when it's in your face really shows your age
     A G D 
But that don't worry me none in my eyes you're everything
   G D G A 
I laughed at all of your jokes my love ya didn't need to coax
     Em F#m Em A7sus4 A7 
Oh, Maggie I couldn't have tried any more
    Em A Em A          
Ya lured me away from home just to save you from being alone
    Em A G A 
Ya stole my soul and that's a pain I can do without

Verse 3
 A G D 
All I needed was a friend to lend a guiding hand
        A G D 
But ya turned into a lover and mother what a lover you wore me out
 G D G A 
All you did was wreck my bed and in the morning kick me in the head
    Em F#m Em A7sus4 A7 
Oh Maggie I couldn't have tried anymore
    Em A Em A 
Ya lured me away from home 'cos ya didn't wanna be alone
    Em A G D 
Ya stole my heart I couldn't leave ya if I tried

Guitar lead over

 Em7 A D G G/F# Em7 G A D 

Verse 4
 A G D 
I suppose I could collect my books and get on back to school
    A G D 
Or steal my daddy's cue and make a living out of playing pool
    G D G A 
Or find myself a rock and roll band that needs a helpin' hand
    Em F#m Em A7sus4 A7 
Oh Maggie I wish I'd never seen your face
    Em A      
Ya made a first-class fool outta me
            Em A 
And I'm as blind as a fool can be
    Em A G D 
Ya stole my heart but I love ya anyway

Guitar lead over

 Em7 A D G G/F# Em7 G A D Em7 A D G G/F# Em7 G A D D Em7 G D D Em7 G D D Em7 G D D Em7 G D D Em7 G D D Em7 G D D Em7 G D Em7

Dairybeat – First Of May – Bee Gees – Cover chords

 DAIRYBEAT: FIRST OF MAY (B., M. & R. Gibb) 4/4 - 66

|     |: Measure with Chord(s) of 4-Counts
/      : Breaks


INTRO: | D     | G     | D     | A 

VERSE 1:

    | D                          | F#m 
When I was small, and Christmas trees were tall.

  | G D              | A 
We used to love  while others used to play.

     | D                        | F#m          |
Don't ask me why, but time has passed us by.

 G D             | A 
Someone else moved in from far a-way.

CHORUS:

   | G                          | D 
Now we are tall, and Christmas trees are small.

   | Em                         | D D7 
And you don't ask  the time of day.

   | G                        | D 
But you and I, our love will never die.

   | Em G            | D A   |
But guess who'll cry,  come first of May.

VERSE 2:

 D                           | F#m            |
  The apple tree, that grew for you and me.

 | G D              | A 
I watched the apples falling one by one.

   | D                    | F#m 
And I recall, the moment of them all.

   | G D                  | A     |
The day I kissed your cheek and you were gone.

CHORUS:

   | G                          | D 
Now we are tall, and Christmas trees are small.

   | Em                         | D D7 
And you don't ask  the time of day.

   | G                        | D 
But you and I, our love will never die.

   | Em G               | D A   |
But guess who'll cry,  come first of May.

OUTRO:

      D                          | F#m             |
When I was small, and Christmas trees were tall.
 
                              /
 G D               | A 
Do do do,  do do,  do do,  do do.

      /                        /
     | D                        | F#m          |
Don't ask me why, but time has passed us by.

                                 /
 G D             | A 
Someone else moved in from far a-way.


Tab by: DAIRYBEAT (André H. Hofman, Purmerend, Netherlands).
FREE* Dairybeat ORIGINALS, COVERS and BACKING TRACKS on:
http://www.soundclick.com/bands/default.cfm?bandID=137360&content=music

https://www.youtube.com/user/Dairybeat

Mayhem Tabs by Imelda May

 Imelda May - Mayhem

 Christian Fuentes

I'm not quite sure about the chorus, and other parts may need some improving but I think
it's kind of accurate.

Intro

|--------------------------------------------------------|
|--------------------------------------------------------|
|----------------------------------------------3-3--3-2--|
|-2-2--0-2-0-----------------------------------2-2--2-1--|
|------------2-0-2-2--0-2-0---------------0-2--3-3--3-2--|
|---------------------------3-2-0--0-0-0-3---------------|

Pre-verse

|--------------------|
|--------------------|
|--------------------|
|--2-2--0-2----------|
|-----------2--------|
|-------------3-0----|

Verse

(In the first part of the first verse both guitars are muted. And guitar 2
only applies to 2nd and 3rd verse)

Guitar 1
|----------------------------------|
|----------------------------------|
|--3---3---3---3---3---3---3-3-2---|
|--2---2---2---2---2---2---2-2-1---|
|--3---3---3---3---3---3---3-3-2---|
|----------------------------------|

Guitar 2
|---------------------------------|
|---------------------------------|
|--------------------------3-3-2--|
|--2--2---0--2-------------2-2-1--|
|--------------2-----------3-3-2--|
|----------------3--0-------------|

Pre-chorus

|--------------0~---------------0~---|
|-----------3----------------3-------|
|--------3----------------2----------|
|-----2----------------1-------------|
|--3----------------2----------------|
|------------------------------------|

Chorus

|-------------------------------------------|
|-------------------------------------------|
|-------------------------------------------|
|--2-2----------2-----2-----------------2---|
|--2-2----2--5--2-----2----5--5---2-----2---|
|--0-0--3-------0--3--0--------------3--0---|

Interlude

|---------------------------------------------------------------|
|---------------------------------------------------------------|
|--3------2------3------2--3--2--3--2--3--2--3--2--3--2--3--2---|
|--2------1------2------1--2--1--2--1--2--1--2--1--2--1--2--1---|
|--3------2------3------2--3--2--3--2--3--2--3--2--3--2--3--2---|
|---------------------------------------------------------------|


And the structure is 

Intro x2
Pre-verse x4
Verse x2
Pre-chorus
Chorus x4
Intro
Verse x2
Pre-chorus
Chorus x4
Interlude
Solo
Verse x2
Pre-chorus
Chorus x8
Intro x2

Oceans Where Feet May Fail chords – Hillsong United V5

 Song Name: Oceans (Where Feet May Fail)
Arrangement: Hillsong United - Zion

Chorded by: Worship Tutorials
email: brian@worshiptutorials.com

 Bm  / /  A/C#  |  D  / / / |  A  / / / |  G  / / / |

VERSE 1:
 Bm A/C# D 
  You call me out upon the waters
            A G 
The great unknown where feet may fail
 Bm A/C# D          
  And there I find You in the mystery
             A G 
In oceans deep - My faith will stand

CHORUS:
 G D A      
  And I will call upon Your name
 G D A G 
  And keep my eyes above the waves - When oceans rise    
               D A 
My soul will rest in your embrace
            G         ( A )
For I am Yours and You are mine

TURNAROUND:
 Bm  / /  A/C#  |  D  / / / |  A  / / / |  G  / / / | 

VERSE 2:
 Bm A/C# D 
Your grace abounds in deepest waters
                 A G 
Your sovereign hand   Will be my guide
 Bm A/C# D 
Where feet may fail and fear surrounds me
               A G 
You've never failed and you won't start now

CHORUS 2:
 G D A 
So I will call upon Your name
  G D A G 
And keep my eyes above the waves - When oceans rise    
               D A 
My soul will rest in your embrace
            G          ( A )
When I am Yours  and You are mine

TURNAROUND/SOLO:
 Bm  / /  A/C#  |  D  / / / |  A  / / / |  G  / / / |
 Bm  / /  A/C#  |  D  / / / |  A  / / / |  G  / / / |

BRIDGE  A :
 Bm G 
   Spirit lead me where my trust is without borders     
            D A 
   Let me walk upon the waters wherever You would call me
 Bm G 
   Take me deeper than my feet could ever wander
             D A 
   And my faith will be made stronger in the presence of my Savior (x3)

BRIDGE  B :
 G D 
   Spirit lead me where my trust is without borders     
             A Em 
   Let me walk upon the waters wherever You would call me
 G D 
   Take me deeper than my feet could ever wander
             A Em 
   And my faith will be made stronger in the presence of my Savior

BRIDGE  C :
 Bm A/C# D 
   Spirit lead me where my trust is without borders     
            A Em 
   Let me walk upon the waters wherever You would call me
 Bm A/C# D 
   Take me deeper than my feet could ever wander
             A Em 
   And my faith will be made stronger in the presence of my Savior (x2)

SOLO 2:
 Bm  / /  A/C#  |  D  / / / |  A  / / / |  Em  / / / |
 Bm  / /  A/C#  |  D  / / / |  A  / / / |  Em  / / / |

CHORUS 3:
 G D A  
  I will call upon Your Name    
 G D A     
  Keep my eyes above the waves
 G D A  
  My soul will res

May Christ Be Exalted chords – Praise And Worship

 -------------------------------------------------------------------------
                     May Christ Be Exalted      
-------------------------------------------------------------------------

 ***************************************************************
 *     "markchordz" 6 Years in the road(UG)                    *
 * Thanks for supporting my tabs here in Ultimate-guitar.com   * 
 ***************************************************************


************************************************************************** 
*Read first: Pls Rate, leave some comments and be sure that your         *
* guitar "tune" well before playing this song..                          *
*                                                                        *
*            All Rights Reserved © Copyright 2014                        *
************************************************************************** 
 



  G C D G 
May christ be exalted in me
   G C Dsus D 
My christ be exalted in me
   Em D 
I will live to bring him
   G C 
Glory and honor

   G D Em 
From now to eternity
    C D G C G  
O, may Christ be exalted in me


Chorus:

  D G C 
Be exalted, O LOrd

  D G C 
Be exalted O lord

  F 
Now and forever
   Am 
BE glory and honor
  C D 
Power and wisdom and might

  Em C D G C G 
O may Christ be exalted in me

Hold On Till May Acoustic chords – Pierce The Veil V2

 Verse:

 Asus2 Ab/B 
  She sits up high surrounded by the sun
                                         Asus2 
One million branches and she loves everyone
                                  Ab/B 
“Mom and dad, did you search for me?
        
I’ve been up here so long I’m going crazy!”

Chorus:

 A 
  And as the sun went down we ended up on the ground
             Ab/B          
I heard the train shake the windows

You screamed over the sound
           A 
And as we own this night

I put your body to the test with mine
              Ab/B 
This love was out of control

3-2-1 where did it go?

 A Ab/B 


Verse:

 Asus2 
  Now don’t be crazy

Yes now, of course you can stay here
                               Ab/B 
You know we’re going on ten years.

“Big deal, I guess you’re official.”
                                             Asus2 
I only said it ‘cause I know what it’s like to feel

Burned out, and down
                      Ab/B 
We’ve all been there sometimes

But tonight I’ll make you feel beautiful once again



Chorus:

 A 
  And as the sun went down we ended up on the ground
             Ab/B          
I heard the train shake the windows

You screamed over the sound
           A 
And as we own this night

I put your body to the test with mine
              Ab/B 
This love was out of control

3-2-1 where did it go?


 E  -> 0-2 ->  Ab/B  -> 7 ->  A  -> 4 -> 


Bridge:

 E Ab/B 
  If I were you, I’d put that away
                         A 
See, you’re just wasted

And thinking about the past again
                    E 
Darling you’ll be okay


And she said,
 E Ab/B 
 “If you were me, you’d do the same
         A        
‘Cause I can’t take anymore

I’ll draw the shades and close the door
  E 
Everything’s not alright and I would rather…”

 E Ab/B A E 

Chorus:

 Am A 
  And as the sun went down we ended up on the ground
             Ab/B          
I heard the train shake the windows

You screamed over the sound
           A 
And as we own this night

I put your body to the test with mine
                E 
This love was out of control

Tell me where did you go?

 Ab/B A E 

------0-|
------0-|
------2-|
--2-1-2-|
------0-|
------x-|

May Tabs by Texas In July V2

 Texas In July - May
Standard tuning - EADGBe
Capo - None

Intro x1

e|---------0------------0h2h3-2--------3p2--------0--|
B|----3------3------3-----------3----------3------3--|
G|------0------0------0-----------0---------------0--|
D|--2------------2---------------------------2----2--|
A|----------------------------------2----------3--3--|
E|---------------------------------------------------|

e|---------0-------2-----2h3p2---------3p2-----------0--|
B|----3------3-------3---------3-----------3---------3--|
G|------0------0-----------------0-----------0-------0--|
D|--2------------2-----2-----------2-----------------2--|
A|-----------------------------------2---------0-0-2-3--|
E|------------------------------------------------------|

1st part x2

e|---------0------------0h2h3-2--------3p2-------0-0-00-0------|
B|----3------3------3-----------3----------3s5s3-3-3-33---3----|
G|------0------0------0-----------0--------------0-0-00-----0--|
D|--2------------2-------------------------------0-2-22-------2|
A|----------------------------------2------------0-3-33--------|
E|-------------------------------------------------------------|

e|---------0-------2-----2h3p2---------3p2------0-0-00-0------|
B|----3------3-------3---------3-----------3s3s-3-3-33---3----|
G|------0------0-----------------0--------------0-0-00-----0--|
D|--2------------2-----2-----------2------------0-2-22-------2|
A|-----------------------------------2----------0-3-33--------|
E|------------------------------------------------------------|

Pre-Chorus x1

e|--0-00-0------|
B|--3-33---3----|
G|--0-00-----0--|
D|--2-22-------2|
A|--0-33--------|
E|--------------|

Chorus x2

e|--3-33-333-222-333-3-33-333-222-333-3-33-333-222-333-3-33-333-333-333|
B|--3-33-333-333-333-3-33-333-333-333-3-33-333-333-333-3-33-333-333-333|
G|--0-00-000---------0-00-000---------0-00-000---------0-00-000-000-000|
D|--2-22-222---------0-00-000---------2-22-222---------2-22-222-222-222|
A|--2-22-222---------2-22-222---------3-33-333---------0-00-000-000-000|
E|--0-00-000---------3-33-333---------0-00-000---------0-00-000-000-000|

2nd part x1

e|---------0------------0h2h3-2--------3p2--------0--|
B|----3------3------3-----------3----------3------3--|
G|------0------0------0-----------0---------------0--|
D|--2------------2---------------------------2----2--|
A|----------------------------------2----------3--3--|
E|---------------------------------------------------|

e|---------0------------0h2h3-2--------3p2-------0-0-00-0------|
B|----3------3------3-----------3----------3s5s3-3-3-33---3----|
G|------0------0------0-----------0--------------0-0-00-----0--|
D|--2------------2-------------------------------0-2-22-------2|
A|----------------------------------2------------0-3-33--------|
E|-------------------------------------------------------------|

e|--0-00-0------|
B|--3-33---3----|
G|--0-00-----0--|
D|--2-22-------2|
A|--0-33--------|
E|--------------|

e|---------0------------0h2h3-2--------3p2-------0-0-00-0------|
B|----3------3------3-----------3----------3s5s3-3-3-33---3----|
G|------0------0------0-----------0--------------0-0-00-----0--|
D|--2------------2-------------------------------0-2-22-------2|
A|----------------------------------2------------0-3-33--------|
E|-------------------------------------------------------------|

e|---------0-------2-----2h3p2---------3p2------0-0-00-0------|
B|----3------3-------3---------3-----------3s3s-3-3-33---3----|
G|------0------0-----------------0--------------0-0-00-----0--|
D|--2------------2-----2-----------2------------0-2-22-------2|
A|-----------------------------------2----------0-3-33--------|
E|------------------------------------------------------------|

Chorus x2

e|--3-33-333-222-333-3-33-333-222-333-3-33-333-222-333-3-33-333-333-333|
B|--3-33-333-333-333-3-33-333-333-333-3-33-333-333-333-3-33-333-333-333|
G|--0-00-

Live This Life intro Tabs by Miss May I

 Haven't seen a tab for this song anywhere so I went ahead and figured it up. 
and I will do only the lead for now haven't haven't got to far in the whole song but its a start.

Tuning is Drop C

|------------------------------------------------------------------| \
|------------------------------------------------------------------| | 
|-14-----------------14-----------------14-------------------------| |
|----15-12-15-12-15-----15-12-15-12-15-----15-12-15----------------| |
|------------------------------------------------------------------| |
|------------------------------------------------------------------| | 
                                                                     /
                      Play four times mostly Palm muted, then twice open.
                                                                     \
|------------------------------------------------------------------| |
|------------------------------------------------------------------| |
|-----------------------15-10----15-10----15-10h17-----------------| |
|-----------------------------12-------12--------------------------| |
|-19-15-15-19-15-15-19---------------------------------------------| |
|------------------------------------------------------------------| /




|------------------------------------------------------------------|
|------------------------------------------------------------------|
|------------------------------------------------------------------|
|-{pickslide}------------------------------------------------------|
|----------------10---10h12----------------------------------------|
|-------------00----0-------0-0-0-0-0-0-12h13p12-------------------|
              --    -       -   -   -

Sorry, all I got for now.

If You Ask chords – Corrinne May

 Song   : If You Ask
Artist : Corrinne May
Album  : Crooked Lines
Key    : F
Standard EADGBe tuning
Capo 1 to play in F, chords are in E.

Intro
 E Esus4 E5 Esus4 E   |   Esus4   |   E5 
e|--0-------0-------0-------|
B|--0-------0-------0-------|
G|--1-------2-------4-------|
D|--2-------2-------2-------|
A|--2-------2-------2-------|
E|--0-------0-------0-------|

Verse 1
   E Esus4 E5 Esus4 E Esus4 E5 Esus4  
I hate sticking out from the crowd
      E Esus4 E5 Esus4      Badd4
I'd rather hide behind my thick glasses 
      E Esus4 E5 Esus4 E Esus4 E5 Esus4  
I'm much too shy to fight or speak out loud
      E Esus4 E5 Esus4  
I'd rather scratch a chalkboard
       Badd4
Than talk about myself 
          A2       Badd4   E/G# A2      Badd4   E/G# 
Oh, but you are all that I treasure
        A2      Badd4       D 
It's time to share the wealth


Chorus
   Badd4   C#m 
So if you ask
                A2 E/G# 
I'll show my face
     Badd4     C#m 
Yeah if you ask me
           A2 E 
I'll go anywhere you say
        B C#m A2 F# 
I'll shout your name to the mountain tops
      A2 B 
Alleluia!
             E Esus4 E5 Esus4 E Esus4 E5 Esus4  
Praise the Lord!


Verse 2
    E Esus4 E5 Esus4 E Esus4 E5 Esus4  
I can't believe the things they're saying about you
  E Esus4 E5 Esus4  Badd4
Makes me want to curl up and cry
     E Esus4  
I wish they knew
 E5 Esus4 E Esus4 E5 Esus4  
How much you suffered
     E Esus4 E5 Esus4       Badd4
To save them from the everlasting fire
          A2          Badd4  E/G# A2      Badd4  E/G# 
Oh, but tough times call for tough measures
       A2         Badd4         D 
This time it's down to the wire

Bridge
 B C#m A E/G# 
But your voice is so hard to hear sometimes
 B C#m A E/G# 
When the going gets rough I want to run away
 B C#m A E/G# E 
No one lights a fire to hide it from view
            F# 
So let it shine
Let it shine
          Am7 
Let it shine!

Oceans Where Feet May Fail Tabs by Hillsong United V2

 -----------------------------------------------------------------------------
    Oceans (Where Feet May Fail)- Hillsong United
-------------------------------------------------------------------------------
: Audrey Barnett
 audreyqbarnett

Tuning: Standard
In the key of D

Chorus

(Do this part 3 out of the 4 times)

         G              D            A

e|--------7----7/------14------14---9---9---9----9h10p9------------|
B|-----------------------------------------------------------------|
G|----7----7------14------14-----9---9---9-------------------------|
D|-----------------------------------------------------------------|
A|-----------------------------------------------------------------|
E|-----------------------------------------------------------------|

Do this the 4th time (The Bm triad isn't necessary, I just like it)

           G           A      Bm

e|-----7-----7----7-----9-----7----------------------|
B|------------------------------7--------------------|
G|-7-----7------7----9------7------------------------|
D|---------------------------------------------------|
A|---------------------------------------------------|
E|---------------------------------------------------|

2nd Chorus

(Alternative for chords)

        Bm          A      D                            e|--|
B|----------------------------------------------------------|
G|---7---7---7---9----11---11---11---11---------------------|
D|-9---9---9---11---12---12---12---12-----------------------|
A|----------------------------------------------------------|
E|----------------------------------------------------------|

           A                                 G
e|----------------------------------------------------------------|
B|----------------------------------------------------------------|
G|----------------------------------------------------------------|
D|----11----11----11----11----12----12----12----12----------------|
A|-------12----12----12----12----10----10----10----10-------------|
E|----------------------------------------------------------------|

This might not be exactly what is on the record, but it all sounds good with it and can 
provide some alternatives to the exact thing. :)
************************************

| /   slide up
| \   slide down
| h   hammer-on
| p   pull-off
| ~   vibrato
| +   harmonic
| x   Mute note
| b   Bend
| pb  Pre-bend
| br  Bend release
| pbr Pre-bend release
| brb Bend release bend

************************************

Jarrod Dickenson – Come What May chords

 Artist: Jarrod Dickenson
Band website: http://www.jarroddickenson.com/home
Song: Come What May
 The Lonesome Traveler

Capo 7th Fret (chords relative to capo).  The chords are picked in various ways,
will have to listen to original to figure that out.  Email me at
russwomble if need any help.  Thanks!

Intro:   G D/F# Am D/F#   X 2

Verse 1

 G D/F# Am D/F# G D/F# Am D/F#
Darlin'   kiss me  that's  what she said last night

 G D/F# Am D/F# G D/F# Am D/F#
And take my hand and promise our love will grow with time   with time


Chorus
 C G D C G D
We'll make our way through the storm and let come what may

                        C G D Am G
This love will not be torn.  Our hearts will stay where they belong


Intro:   G D/F# Am D/F#   X 2


Verse 2

 G D/F# Am D/F# G D/F# Am D/F#
And darlin'   she said  winter is drawing ever closer.

 G D/F# Am D/F# G D/F# Am D/F#
So stay here, hold me, you know how I hate to feel the cold near


Chorus X 1


Bridge

 Em D/F# G C
And it won't be easy, no

 Em D/F# G C
Just take it day by day

 Em D/F# G C D
And nothing worth having ever's easy anyway


Verse 3

 G D/F# Am D/F# G D/F# Am D/F#
So darlin' let me tell you what I see inside your eyes

            G D/F# Am D/F# G D/F# Am D/F#
Well, I see years upon years of our love and a fire that will not die


Chorus X 1


 G D/F# Am D/F# G
 Darlin' kiss  me that's what she said last night

May chords – The Story So Far

 Am C F  
|-X----X-----X-|
|-X----X-----X-|
|-X----X-----X-|
|-X----X-----X-|
|-3----3-----3-|
|-5----0-----1-|


[ Am  x6,  C  x2,  F  x8] x2


 Am C F 
Might as well pack up all your stuff and move into my head
 Am C F 
I wish I could dispose of all these thoughts and just be numb instead
 Am C F 
I wish you'd stop running from your problems and run to me instead
 Am C F 
Black and blue, eyes bloodshot red while she's passed out out in her bed


 Am C F 
        This song is for William
 Am C F 
        This song is for William


 Am C F 
Maybe I can make you change your decision by using all the ink in this pen
 Am C F 
Maybe I can make you change your decision by using all the ink in this pen
 Am C F 
Maybe I can change you

Devil May Cry chords – The Weeknd

  Kwint & Troy (from Sir Jupiter).

Hope you enjoy this song, and don't forget to check out our band Sir Jupiter here : 
https://www.facebook.com/sirjupiter  

Artist : The Weeknd
Song : Devil May Cry
Album : Hunger Games: Catching Fire Soundtrack [2013]

Here are just the chords. For the fingerpicking patterns, check out the ''tab'' we made!


CAPO VI

Special chords used:
 Fmaj7  [133210]
 G6     [320000]
 E7/G#  [4x0100]
Em5   [022010]

INTRO:  Am 


e|---------0---------|
B|------1-------1----|
G|----2---2---2---2--|
D|---2---2---2---2---|
A|-0---0---0---0-----|
E|-------------------|  x4


VERSE:

 Am G6 Fmaj7 G6 
It won't be in vain
 Am G6 Fmaj7 G6 
To swallow all your pain
      Am G6 Fmaj7 G6 
And learn to love what burns
    And        G6 Fmaj7 G6 
And gather courage to return to...


CHORUS: [x2]

               Am G6 
Faces in the crowd
               Fmaj7 G6 
Faces in the crowd will smile again
                    Fmaj7 
And the devil may cry
                G6 Am E7/G#                           
The devil may cry at the end of the night


INTERLUDE:  Am G6 Fmaj7 G6  x2


VERSE:

     Am G6 Fmaj7 G6 
The light will shine through the rain
      Am G6 Fmaj7 G6 
And heaven will hear them call your name
      Am G6 Fmaj7 G6 
And home will feel like home again
    Am G6 Fmaj7 G6 
Corruption will fill your brain



CHORUS: [x2]

               Am G6 
Faces in the crowd
               Fmaj7 G6 
Faces in the crowd will smile again
                    Fmaj7 
And the devil may cry
                G6 Am E7/G#                           
The devil may cry at the end of the night


INTERLUDE:  Am G6 Fmaj7 G6    x4


BRIDGE:

                             Am G6 Fmaj7 G6 
They will parade upon your vict-ooooo-ry
                             Am G6 Fmaj7 G6 
They will parade upon your vict-ooooo-ry
                                Am 
You'll put a smile upon their faces
      G6 Fmaj7 
The world will be yours for the taking
      G6 Am 
The story you birth will be ageless
       G6 Fmaj7 G6 
Just learn to love pain and be patient


CHORUS: [x2]

               Am G6 
Faces in the crowd
               Fmaj7 G6 
Faces in the crowd will smile again
                    Fmaj7 
And the devil may cry
                G6 Am                        
The devil may cry at the end of the night


OUTRO:

 Am E7/G# G6 Fmaj7  Em5  G G Am 


If you have any suggestions/corrections, please let us know in the comments!

Devil May Cry Tabs by The Weeknd

  Kwint (from Sir Jupiter).

Hope you enjoy this song, and don't forget to check out our band Sir Jupiter here : 
https://www.facebook.com/sirjupiter  

Artist : The Weeknd
Song : Devil May Cry
Album : Hunger Games: Catching Fire Soundtrack [2013]

For every FINGERPICKING PATTERN used in this song, check at the end of this tab!!


CAPO VI

Special chords used:
Fmaj7 [133210]
G6    [320000]
E7/G# [4x0100]
Em5   [022010]

INTRO: Am


e|---------0---------|
B|------1-------1----|
G|----2---2---2---2--|
D|---2---2---2---2---|
A|-0---0---0---0-----|
E|-------------------|  x4


VERSE:

Am    G6     Fmaj7                  G6
It won't be in vain
Am          G6       Fmaj7          G6
To swallow all your pain
     Am        G6       Fmaj7       G6
And learn to love what burns
    And       G6        Fmaj7       G6
And gather courage to return to...


CHORUS: [x2]

              Am    G6
Faces in the crowd
              Fmaj7            G6
Faces in the crowd will smile again
                   Fmaj7
And the devil may cry
               G6                    Am        E7/G#                          
The devil may cry at the end of the night


INTERLUDE: Am G6 Fmaj7 G6 x2


VERSE:

    Am           G6               Fmaj7      G6
The light will shine through the rain
     Am          G6                  Fmaj7   G6
And heaven will hear them call your name
     Am        G6               Fmaj7        G6
And home will feel like home again
Am               G6         Fmaj7            G6
Corruption will fill your brain



CHORUS: [x2]

              Am    G6
Faces in the crowd
              Fmaj7            G6
Faces in the crowd will smile again
                   Fmaj7
And the devil may cry
               G6                    Am        E7/G#                          
The devil may cry at the end of the night


INTERLUDE: Am G6 Fmaj7 G6   x4


BRIDGE:

                            Am    G6  Fmaj7   G6
They will parade upon your vict-ooooo-ry
                            Am    G6  Fmaj7   G6
They will parade upon your vict-ooooo-ry
                               Am
You'll put a smile upon their faces
     G6                          Fmaj7
The world will be yours for the taking
     G6                     Am
The story you birth will be ageless
      G6                        Fmaj7       G6
Just learn to love pain and be patient


CHORUS: [x2]

              Am    G6
Faces in the crowd
              Fmaj7            G6
Faces in the crowd will smile again
                   Fmaj7
And the devil may cry
               G6                    Am  ( same Am as in outro)                        
The devil may cry at the end of the night


OUTRO:

Am E7/G# G6 Fmaj7 Em5 G G* Am


-------------------------------------------------------------

Fingerpicking patterns per chord:

Am 
e|---------0---------|
B|------1-------1----|
G|----2---2---2---2--|
D|---2---2---2---2---|
A|-0---0---0---0-----|
E|-------------------| 

G6
e|---------0---------|
B|------0-------0----|
G|----0---0---0---0--|
D|---0---0---0---0---|
A|-------------------|
E|-3---3---3---3-----|

Fmaj7
e|---------0---------|
B|------1-------1----|
G|----2---2---2---2--|
D|---3---3---3---3---|
A|-------------------|
E|-1---1---1---1-----|

E7/G#
e|-------------------|
B|------0--3----0----|
G|----1---1---1---1--|
D|---0---0---0---0---|
A|-------------------|
E|-4---4---4---4-----|

Em5
e|---------0---------|
B|------1-------1----|
G|----0---0---0---0--|
D|---2---2---2---2---|
A|-------------------|
E|-0---0---0---0-----|

G*
e|-------------------|
B|-------------------|
G|-------------------|
D|---0---0---0---0---|
A|-------------------|
E|-3---3---3---3-----|

If you have any suggestions/corrections, please let us know in the comments!

Resurrection Tabs by Brian May

 RESURRECTION    -       Brian May

Intro:
e|---------------------------------------------------/
B|---------------------------------------------------/
G|---------------------------------------------------/
D|5--------------------------------------------------/
A|-7-5--7-5---5-------------7-5---5------------------/
E|----------7---7-5--7-5-3------7---7-5--7-5-3--5-3-0/

E5 -      G - A - E5i      4x 

Bm - B7sus2 - A6/B - Bm -      Gi - D - E7      2x 


          F#m     
There's a      pain in my brain 
B          A          
    Con -     fusion in my heart 
E        F#m          
    My       blood's fit for bursting 
B       A         
    my     body apart
            D                  A      
I'm gonna     ride - ride the     night 
          E           F#m        F#m - F#m11 - F#m -     
into the     morning       sun 
B - A         F#m - E     
      (Yeah)           Yeah

           F#m         
I'm gonna       make my resurrection
B        A              
    No     more of this crap
E          F#m            
    Got a       whole new direction
B          A              
    Ain't     no turning back
D            A                E          F#m        F#m - F#m11 - F#m -   
    Resur -    rection is a -     gonna      come 
B - A -     F#m - E 


Bm - B7sus2 - - A6/B - Bm -      Gi - D - E7      2x 


    F#m        
My      spirit is weeping
B        A            
    For    freedom it cries
E         F#m          
    Been      scraping my living
B           A            
    In the     valley of lies
       D                        A        
Oehoe     hoeoe Gonna ride the     night 
          E           F#m       F#m - F#m11 - F#m -     
into the     morning       sun 
B - A -      F#m          E   
                    Yea -     eah

       F#m     
I'm a       victim of a victim
B          A      
    Of a      conspiracy
E           F#m            
    From a       corpum derelictum
B          A            
    Gonna     fly and be free
D            A                 E         F#m       F#m - F#m11 - F#m -   
    Resur -     rection is a -    gonna      come 
B - A -      F#m - E 

Bm - B7sus2 - - A6/B - Bm -      Gi - D - E7      2x 


Break:
F#5 -      C#m - B - A      2x 
F5 -      Cm - Bb - G#      2x 
F#5 -      C#m - B - A      2x 


F5         
     Clear the vision
F5          
     Heal the system
Fm         C/E       Fmi        Fmii   
     Sins      for -       gi -        ven
G#m       (G#m)       
     Rise 
F5      
     Flee the prison
F5               
     Break the system
Fm         C/E        Fmi        Fmii     
     Sins       for -      gi -        ven
C#        (C#)      
     Rise 


D             A          
    Ride the     night
        A/G                     D/F#          
Yes I       know I'm still a -        live
          D           A         
(Gotta)     ride the     night - yeah
G              
    I'm gonna ride
          D                       F#7         (F#7) 
Rise a -     gain in the morning       light 


Bm - B7sus2 - - A6/B - Bm -      Gi - D - E7      3x 
Bm - B7sus2 - - A6/B - Bm - 

e|-------------------------------------------------/
B|7-5---5------------------------------------------/
G|----7---7-4-7-4---4-----4p2-----2----------------/
D|----------------7---7-5-----5-2---5-2------------/
A|--------------------------------------5-2--------/
E|------------------------------------------6-5-3-0/

F5 - F5/G - Fm/G# - Fm/C      2x 


            F#m           
There's no       sense in my counting
B        A            
    The     price of those years
E            F#m        
    There's      too many heartaches
B         A               
    And     too many tears
       D                  A       
Oehoe     hoeoe Ride the     night 
          E           F#m        F#m - F#m11 - F#m -      
into the     morning       su

You may keep (tab) – Feel chords

intro

I gitara
------8---------8-----------8---------8-----------8---------8---------8----------8---------
-------9---9h11----11---------9--9h11---11-9--------9---9h11--11--------9---9h11---11-9----
--8---------------------8---------------------10------------------10------------------------
------------------------------------------------------------------------------------------
-------------------------------------------------------------------------------------------
---------------------------------------------------------------------------------------------

-----8---------8----------8----------8----------8s13~~--------------------------
-------9---9h11--11---------9---9h11---11-9----9--------------------------------------------
--8-------------------8-----------------------8----------------------------
-------------------------------------------------------------------------
-------------------------------------------------------------------------------
--------------------------------------------------------------------------
II gitara 2x
|...................p.m.................|
----------------------------------------------------------------------
----------------------------------------------------------------------------
------------------------------------------------------------------------
-------------------------------------------------------------------------
-6666666666666666-4444444444444444-------------------------------------------
-4444444444444444-4444444444444444--------------------------------------

zwrotka ( jak w intro, p.m ) 2x
----------------------4---4----4-4----------------------------------------
----------------------5----5---5--5---------------------------------------------
----------------------6-----6--6---6----------------------------------------
--------5...--6...----6------6-6----6------------------------------------------------
-6...---3...--4...----4------------------------------------------------------------
-4...-------------------------------------------------------------------------

refren:
--4---4---------4-------3---3--------3-------4----4-------4---------4-9-------4s9-------
--4------5----5----5----4------4----4---4----6------6----6---6-----5-----5---5-----5--------
--5-------6--6------6---5-------5--5-----5---6--6----6--6-----6---6-------6-6-------6----
--6--6------6-----------5-5-------5----------6-6-------6-------------------------------
--6---------------------3--------------------4----------------------------------------
--4------------------------------------------------------------------------------------

drugi raz tak samo do tego momentu
---------------------------------------------4----4---------6---------4-----4------
---------------------------------------------6-----6----------------6--6----5------
---------------------------------------------6--6---6-----8---8----6----6---6------
---------------------------------------------6-6---------5-----5--6---------6----
---------------------------------------------4--------6---------------------4-------
--------------------------------------------------------------------------
zwrotka i refren tak samo ( refren mozna juz grac calymi akordami )
2:40s
----------------------------------------------------------------------------
----------------------------------------------------------------------------
--3-333333-6-666666-------------------3-33333333333333s6-66666666666666---------------------
--3-333333-6-666666-3-33333333333333--3-33333333333333s6-66666666666666---------------
--1-111111-4-444444-3-33333333333333--1-11111111111111s4-44444444444444--------------
--------------------1-11111111111111-----------------------------------------------------
pozniej chwyty ze zwrotki, i refren

solo ( do 4:30 s grane akordy z wah wah i tlumieniem )
                                                  |        4x             |