Tag: mayer

New Light piano chords by John Mayer

[Intro]
Am7 D Gmaj7 C
C Bm7
(those two chords C and Bm7 are in quick progression, 1 count per chord)
Am7 D Gmaj7
Ah, ah

[Verse 1]
Am7                 D
I'm the boy in your other phone
Gmaj7                   C              C   Bm7
Lighting up inside your drawer at home all alone
Am7               D
Pushing 40 in the friend zone
Gmaj7                   C      C     Bm7
We talk and then you walk away every day
Am7                 D
Oh, you don't think twice 'bout me
Gmaj7                  B7
And maybe you're right to doubt me, but

[Chorus]
Am7        D
But if you give me just one night
Gmaj7        C           C   Bm7
You're gonna see me in a new light
Am7          D
Yeah, if you give me just one night
Gmaj7       C              C   Bm7
To meet you underneath the moonlight
Am7               D                   Gmaj7
Oh, I want a take two, I want to breakthrough
                 C           C    Bm7
I wanna know the real thing about you
Am7      D                     Gmaj7
So I can see you in a new light

[Verse 2]
Am7               D
Take a ride up to Malibu
Gmaj7                C            C       Bm7
I just wanna stay to look at you, look at you
Am7                          D
What would it matter if your friends knew?
Gmaj7                C          C  Bm7
Who cares what other people say anyway
Am7           D            Gmaj7
Oh, we can go far from the end
B7
And make a new world together baby

[Chorus]
Am7        D
But if you give me just one night
Gmaj7        C           C   Bm7
You're gonna see me in a new light
Am7          D
Yeah, if you give me just one night
Gmaj7       C              C   Bm7
To meet you underneath the moonlight
Am7               D                   Gmaj7
Oh, I want a take two, I want to breakthrough
                 C           C    Bm7
I wanna know the real thing about you
Am7      D                     Gmaj7
So I can see you in a new light

[Bridge]
G C Em7 D

[Solo]
Am7 D Gmaj7 C
C Bm7
(those two chords C and Bm7 are in quick progression, 1 count per chord)
Am7 D Gmaj7

Em7
Ah ah ah ah

[Chorus]
Am7        D
But if you give me just one night
Gmaj7        C           C   Bm7
You're gonna see me in a new light
Am7          D
Yeah, if you give me just one night
Gmaj7       C              C   Bm7
To meet you underneath the moonlight

[Outro]
Am7
What do I do with all this
D                          Gmaj7                               C         C Bm7
What do I do with all this love that's running through my veins for you
Am7
What do I do with all this
D                          Gmaj7                               C         C Bm7
What do I do with all this love that's running through my veins for you
Am7
What do I do with all this
D                          Gmaj7                               C         C Bm7
What do I do with all this love that's running through my veins for you
Am7
What do I do with all this
D                          Gmaj7                               C         C Bm7
What do I do with all this love that's running through my veins for you
Am7
What do I do with all this?
D                             Gmaj7      C         C Bm7
What do I do with all this... ooooh

Still Feel Like Your Man Piano Chords by John Mayer

[Intro]
GM7
I still feel like your man (Ohhh oh oh)
GM7
I still feel like your man (Eww ew ew)
GM7
I still feel (I still feel) 
A
I still feel like your man

DM7 A7sus4
DM7 A7sus4
[Verse]
DM7                                      A7sus4
The prettiest girl in the room she wants me
                   DM7        A7sus4 
I know because she told me so
DM7               A7sus4 
She says come over I'd like to get to know you
      DM7                    A7sus4 
But I just don't think I can

[Chorus]
         Em7                     A7sus4 A7
'Cause I still feel like your man
DM7                     F#7        
Still feel like your man
Em7                       A7sus4 A7
I still feel like your man
F#7
Still feel like your man
Bm      A
I still feel like your man

[Break]
[Verse]
A6                              A7sus4  
I still keep your shampoo in my shower
            A6                   A7sus4 
In case you wanna wash your hair
A6                                          A7sus4 
And I know that you probably found yourself someone somewhere
A6                        A7sus4 
But I do not really care 'cause as long as it is there

[Chorus]
         Em7                     A7sus4 A7
'Cause I still feel like your man
DM7                     F#7        
Still feel like your man
  Em7                     Asus4 A7
I still feel like your man
F#7
Still feel like your man
Bm      A
I still feel like your man

[Bridge]
     Bb6
Your man... (Ever since the day we met)
F6                                               Bb6
Still like the letters in your name and how they feel, babe
F6                                       Bb6
Still think I'm never gonna find another you
F6                                          A
Still like to leave the party early and go home, babe
A
And don't you know, babe
A
I'd rather sit here on my own and be alone, babe

[Chorus]
         Em7                      Asus4 A7
'Cause I still feel like your man
DM7                     F#7        
Still feel like your man
  Em7                     Asus4 A7
I still feel like your man
F#7
Still feel like your man
  Em7                     Asus4 A7
I still feel like your man
DM7                     F#7
Still feel like your man
  Em7                     Asus4 A7
I still feel like your man
F#7
Still feel like your man

[Outro]
DM7               A7sus4 
I still feel like
DM7               A7sus4 
I still feel like
DM7               A7sus4 
I still feel like
DM7                       A7sus4     
I still feel, I still feel

DM7 A7sus4 
DM7 A7sus4 
DM7 A7sus4 
DM7 A7sus4

Emoji Of A Wave Piano Chords by John Mayer

[Verse]
B         
Oh honey
AM9                          E Esus4 E  
You don't have to try so hard
F# F#sus4 F#
To hurt me
B
Don't worry
AM9                         E Esus4 E 
I been thinking bout you too
F#sus4 F#
What do we do

[Pre-Chorus]
A
Your heart is where my head should be
A
The dissonance is killing me
F#
It breaks my heart
G#m7               GM7  B
It breaks my heart

[Chorus]
B
Oh honey
F#m7
Oh honey
E
It's just a wave
Em
It's just a wave
D#m7
And I know
G#m7
That when it comes
C#m7
I just hold on
F#
I just hold on

[Break]
B     AM9   
Esus4 E   F#

[Verse]
B
Oh honey
AM9                     E Esus4 E  
I been talking to myself
F# F#sus4 F#
Just to hear you
B
And you're saying
Amaj7                      E Esus4 E  
Everything I wish you would
F#sus4 F#
And it's so good

[Pre-Chorus]
A
It's raining on the mission bell
A
They're draining out the wishing well
F#
It breaks my heart
G#m7               GM7  B
It breaks my heart

[Chorus]
B
Oh honey
F#m7
Oh honey
E
It's just a wave
Em
It's just a wave
D#m7
And I know
G#m7
That when it comes
C#m7
I just hold on
F#
I just hold on

[Break]
  B
[Bridge]
A
I rose on you like morning light
A
In shuttered dream we'll sleep at night
F#
It breaks my heart
A
It takes all the love I have to say
A
I know we're gonna be ok
F#
It breaks my heart
G#m11              GM7  Bsus2
It breaks my heart

[Chorus]
B
Oh honey
F#m7
Oh honey
E
It's just a wave
Em
It's just a wave
D#m7
And I know
G#m7
That when it comes
C#m7
I just hold on
F#
Until it's gone

Belief Live Tabs – John Mayer V2

 -------------------------------------------------------------------------------
                             Belief - John Mayer
-------------------------------------------------------------------------------
: Jordan McEachern
 jormceachern

Tuning: Standard

Key: F


Verse:
e|---------------------------------------------------------------------------|
B|---------------------------------------------------------------------------|
G|-------------10----9---------7---5------------3---2-------------10----12---|
D|---------------------------------------------------------------------------|
A|-------10h12----10-------7h8---7------3-3-3h5---3---------10h12----13------|
E|-10-10---------------3-3----------------------------10-10------------------|

Pre-Chorus:
e|---------------------------------------------------------------------------|
B|-----------11----10----------10---8---------8---6----------6---5-----------|
G|---------------------------------------------------------------------------|
D|-----10h12----10--------8h10----8-------5h7---5--------3h5---3-------------|
A|--------------------3-3---------------------------1-1----------------------|
E|-3-3--------------------------------1-1------------------------------------|

All for now, more later


************************************

| /   slide up
| \   slide down
| h   hammer-on
| p   pull-off
| ~   vibrato
| +   harmonic
| x   Mute note
| b   Bend
| pb  Pre-bend
| br  Bend release
| pbr Pre-bend release
| brb Bend release bend

************************************

Slow Dancing In A Burning Room intro Tabs – John Mayer V6

 How about this? It's just the first part of the intro.

 If you know the song very well then you will be able to know the hammering,plucking,strumming
 and the power chords' parts


So, the low E string is always played with the thumb. Thanks! :))))))


e------------------------4------------|
b------------------------5------------|
g-------9--9-8-9--8--------6----------|
d------------9-11-9-9-11-9-4-6--------|
a--9-11----11-------9-11-9------------|
e--------9-9--------------------------|


e--------------------------4----------|
b--------------------------5----------|
g-------9--9-8-9--8--------4----------|
d------=-----9-11-9-9-11-9-6-4-6-4-6--|
a--9-11----11-------9-11-9---------7--|
e--------9-9--------------------------|
      

Love Is A Verb Tabs by John Mayer V2

 LOVE IS A VERB by John C. Mayer

I don't make tabs that often so, sorry if it's not well presented.
And, obviously, if you find any mistakes just leave a comment and I'll update accordingly.

Video refference:
•  http://youtu.be/rsYwxA3tztc


INTRO

e|------------------------------------------------|
B|------------------------12----------------------|
G|--9-----9--9---9--------9-----------------9-----|
D|--9-----9--9---9h11-----11----------7-----9-----|
A|--9h11--9--11--0--------0------7----7--7--9h11--|
E|--0----------------------------7h9-----9--0-----|


e|------------------------------------------------|
B|--7/9--9-----9--9------9h10--9--9---12----------|
G|--7/9--12/9--9--9------9h11--9--9---9-----------|
D|--7/9--9-----9--11-----9-----9--11--9-----------|
A|----------------0---------------0---9h11--------|
E|------------------------------------0-----------|


THE REST

These are the different chord progressions (parts) he uses throughout the song, use the 
video to know when to play each of them.

• Part 1
e|--------------------|
B|------12-----7------|
G|--9---9------8--9---|
D|--9---11-----9--9---|
A|--11--0---------11--|
E|--0----------7--0---|

• Part 2
e|--------------------|
B|------12-----7--9---|
G|--9---9------8--9---|
D|--9---11-----9--11--|
A|--11--0-------------|
E|--0----------7--9---|

• Part 3 (used just at 1:10 - 1:23)
e|---------------------------------------------------------|
B|------12-----7--9--7--9--9------9--9---9--------7--------|
G|--9---9------8--8--8--9--9------9--11--9--------8--9-----|
D|--9---11-----9--9--9--9--11-----9--9---9h11-----9--9-----|
A|--11--0-------------------------0--0---0-----------9h11--|
E|--0----------7--7--7--9--9----------------------7--0-----|

Part 4 (Ending)
e|----------------0---|
B|------12-----7--0---|
G|--9---9------8--1---|
D|--9---11-----9--2---|
A|--11--0---------2---|
E|--0----------7--0---|


(The "So you gotta show me" part is the same as Part 1, just change the strumming a little)


LYRICS

Love is a verb
It ain't a thing
It's not something you own
It's not something you scream

When you show me love
I don't need your words
Yeah love ain't a thing
Love is a verb
Love ain't a thing
Love is a verb

Love ain't a crutch
It ain't an excuse
No you can't get through love
On just a pile of I-O-Us

Love ain't a drug
Despite what you've heard
Yeah love ain't a thing
Love is a verb
Love ain't a thing
Love is a verb

So you gotta show, show, show me
Show, show, show me
Show, show, show me
That love is a verb

You gotta show, show, show me
Show, show, show me
Show, show, show me
That love is a verb

Love ain't a thing
Love is a verb

END


That's it. Hope it helped!

Youre No One Til Someone Lets You Down chords – John Mayer V2

 Artist: John Mayer
 Paradise Valley
Song: You're No One 'Til Someone Lets You Down

Standard Tuning


(NO CAPO)

------------------------------------------------------------------------------
 Intro:  C F C F 
No, I've not seen you this way before
    G7 C G 
Standin' a mess at my door
           C  
Well, it took you so long
           C7 F 
But you finally  found
        C G7 C             
You're no one 'til someone lets you down


         C F 
You believed that all people are kind
       G7 C G 
That you'd never mess with your mind
           C 
And you gave her your trust
           C7 F 
And she busted your crown
         C G7 C 
You're no one 'til someone lets you down


  A7 
Yes, I've been told
             Dm 
That some people grow old
           G7 C E7 
Without losing a part of their soul
      A7 
But if that is true
          Dm 
I don't wish it on you
              G7 C G             
There's so much to adore in a heart that is blue


             C F 
There's a light in your eyes that is pure
           G7 C G 
But you won't give away anymore
            C 
But just think of the things
         C7 F 
We can talk about now
         C G7 C 
You're no one 'til someone lets you down


Solo:  C F G7 C G C C F G7 C G C A7 
Yes, I have heard
            Dm 
There are some that avoid
          G7 C E7 
All the pain that will come with the fall
     A7 
But if that's the case
            Dm 
It would surely erase
          G7 C G 
All the joy that you feel when the hurt fades away


             C F 
There's a hard-ticket train on the way
 G7 C G 
Waitin' to take you away
            C 
Will you please keep in mind
           C7 F 
When it pulls into town
         C G7 C 
You're no one 'til someone lets you down
         C G7 C 
You're no one 'til someone lets you down     
    C G7 C 
You're no one 'til someone lets you down

Friends Lovers Or Nothing intro Tabs by John Mayer V4

 The guy who did the chords did a pretty good job, but there was no intro.


E|------------------------------------------------------------------------------------------|
B|-------------10--12b10-------------12b10-----------------12b12--10---------10/12--10--10--|
G|----------9-------------9-----------------11---------11-------------11--9-----------------|
D|------11-------------------11--13-------------9--12---------------------------------------|
A|--12--------------------------------------------------------------------------------------|
E|------------------------------------------------------------------------------------------|

Your Body Is A Wonderland chords – John Mayer V5

 The way I play it I tune a whole step down

DGCFAD

intro 

 G D Cadd9 D  

Vs1
 G D Cadd9 D 
We got the after noon 
 G D Cadd9 D 
You got this room for two
 G D Cadd9 D 
One thing iv'e left to do
 G D Cadd9 D 
Discover me discovering you 
 G D Cadd9 D 
One mile to every inch of
 G D Cadd9 D 
Your skin like porcelain
 G D Cadd9 D 
One pair of candy lips and
 G D Cadd9 D 
Your bubblegum tongue


 Em 
And if you want love
        D     
We'll make it
 Em 
Swim in a deep sea
     D     
Of blankets
 Em 
Take all your big plans
     D 
And break 'em
 Cadd9 D 
This is bound to be a while

  G D Cadd9 D 
 Your body is a wonderland
  G D Cadd9 D 
 Your body is a wonder (I'll use my hands)
  G D Cadd9 D 
 Your body is a wonderland


   G D Cadd9 D 
 Something 'bout the way the hair falls in your face
   G D Cadd9 D 

 I love the shape you take when crawling towards the pillowcase
   G D Cadd9 D 

 You tell me where to go and though I might leave to find it
   G D Cadd9 D 
 
 I'll never let your head hit the bed without my hand behind it



 Em 
And if you want love
        D     
We'll make it
 Em 
Swim in a deep sea
     D     
Of blankets
 Em 
Take all your big plans
     D 
And break 'em
 Cadd9 D 
This is bound to be a while


  G D Cadd9 D 
 Your body is a wonderland
  G D Cadd9 D 
 Your body is a wonder (I'll use my hands)
  G D Cadd9 D 
 Your body is a wonderland

        Em 
 Damn baby
             D 
 You frustrate me
     Em D 
 I know you're mine, all mine, all mine
     Em D 
 But you look so good it hurts sometimes
Solo
 Em D Em D G D Cadd9 D G D Cadd9 D G D Cadd9 D 
 Your body is a wonderland
  G D Cadd9 D 
 Your body is a wonder (I'll use my hands)
  G D Cadd9 D 
 Your body is a wonderland

Something Like Olivia chords – John Mayer V2

 In order to get a good sound, use barre chords for this song only. Note that not
striking all the strings but only part of them, just as hammering on the G7, is
the way JM plays it. However, just playing the regular chords and striking all the
strings will sound great as well. And try to get a groovy strumming pattern - but
that won't be hard by listening to the song.

-------------------------------------------------------------

        G7 C
Well, Olivia is taken
       G7
But a look like hers
 C G7 C G7 C
Can be found from time to time
        G7 C
Yeah, Oliva is taken
        G7
But a look like hers
 C G7 C G7 C
Can be found from time to time

             D
I'm thinkin' something like Olivia
    C G7 C G7 C
Is what I need to find

              G7 C
There's only one man in this world
          G7 C G7 C G7 C
Who gets to sleep with her by his side
              G7 C
There's only one man in this world
          G7 C G7 C G7 C
Who gets to sleep with her by his side

              D
I'm thinkin' something like Olivia
       C G7 C G7 C
Could keep me through the night


*SOLO*
G7--C--G7--C-- (4x)
D--C--G7--C--G7--C--


         G7 C
Now, I'm not trying to steal
      G7 C G7 C G7 C
No love away from no one man
         G7 C
No, I'm not trying to steal
      G7 C G7 C G7 C
No love away from no one man

    D
But if Olivia herself were at my door
 C
I'd have to say
             G7 C G7 C
I'd let her in

 G7 C
Something like Olivia
 G7 C
Something like Olivia
 G7 C
Something like Olivia
 G7 C
Something like Olivia

I keep thinkin'
 D
Something like Olivia
    D G7 C G7 C
Is what I need to find

Queen Of California Acoustic Tabs by John Mayer

 Hi Guys!

I got fed up of waiting for someone to tab THIS version of THIS song, so I just did it myself!

This is the acoustic Vevo sessions version that can be found here:


Some bits in this sound pretty close and I'm sure it's what he's playing. There are a
couple of sections however where I genuinely can't hear what
John is playing as his voice is drowning it out.

So I have filled those sections in the best I can but they're probably not 100%
accurate in all honesty.

Also, don't think I have repeated the same sections for no reason! Some parts have TINY
differences and if I picked them up I added them in, so
look out for them, because if you're rushing through you might miss them!

I would suggest that learning the technique used in 'Age of Worry' will really help you
to pick up and learn most parts of this song a lot easier
and a lot quicker.

And if you can think of anything better to play, or you hear something different that I
don't then leave a comment below and play it how you
think it should be played.

Other than that I think the rest of this tab is pretty accurate! Enjoy!

*****************************************************************************

CAPO 4TH FRET

Intro:

I--------------------------------------------------------|I
I-------0h1---1-------------------1----------------------|I
I-------0-----0-----0---------0-----------0-------0------|I
I-------0h2---2p0-------0h3-----------2-------0----------|I
I--------------------------------------------------------|I
I---3----------------------------------------------------|I


I--------------------------------------------------------|I
I-------0h1---1-------------------1----------------------|I
I-------0-----0-----0---------0--------------------------|I
I-------0h2---2p0-------0h3-----------3p2p0-------0------|I
I---------------------------------------------3----------|I
I---3----------------------------------------------------|I


I---------------------------------------------------------------|I
I-------0h1---1-------------------1-----------------------------|I
I-------0-----0-----0---------0-----------0-------0-------------|I
I-------0h2---2p0-------0h3-----------2-------0-------I---------|   X2
I---------------------------------------------------------------|I
I---3-----------------------------------------------------------|I

Verse: "Goodbye cold, goodbye rain..."

I---------------------------------------------------------------|I
I-------0h1---1-------------------1-----------------------------|I
I-------0-----0-----0---------0-----------0-------0-------------|I
I-------0h2---2p0-------0h3-----------2-------0-------I---------|   X3
I---------------------------------------------------------------|I
I---3-----------------------------------------------------------|I


I----------------------------------------------------------|I
I-------0h1-------------------------1----------------------|I
I-------0-----0-------0---------0-----------0-------0------|I
I-------0h2---------------0h3-----------2-------0----------|I
I----------------------------------------------------------|I
I---3-------------3----------------------------------------|I

"I'm headin' out west..."

I----------------------------------------------------------------------|I
I-------1---------------1---------------1---------------1--------------|I
I---------------0---------------0---------------0---------------0------|I
I-----------2---------------2---------------2---------------2----------|I
I---3---------------3---------------3---------------3------------------|I
I----------------------------------------------------------------------|I


I----------------------------------------------------------------------|I
I-------1---------------1---------------1---------------1--------------|I
I---------------2---------------2---------------2---------------2------|I
I------

Who You Love Acoustic chords – John Mayer

 Hey guys! Figured this out by ear, sounds about right, show some love and share it!

Capo 2

Chords:

 D/F# : 2x0233       C2 : x32033         Cadd9 : x32030         G : 320033           Em : x33033

 Asus4 : x02233

As for strumming, I prefer playing it like this
Down Down up Down. Down up Down up Down.

---------------------------------------------------------------------------------------

Intro:  D/F# C2 G  (x2)


     D/F# C2 G 
You love who you love who you love
     D/F# C2 G 
You love who you love who you love

    D/F# C2 G 
My girl she ain't the one that I saw coming
 D/F# C2 G 
sometimes I don't know which way to go 
       D/F# C2 G 
and I tried to run before but I'm not running any more
         D/F# C2 G 
Cause I fought against it hard enough to know
          D/F# C2 G 
That you love who you love who love
     D/F# C2 G 
you love who you love who love
     D/F# C2 G 
you love who you love who love

          Cadd9 G Em 
you cant make yourself stop dreaming you you're dreaming of
                 D/F# C2 G 
If it's who you love, then it's who you love.


 Em C2 G D/F# C2 G 
My boy he ain't the one that I saw coming
     D/F# C2 G 
and some have said his heart's too hard to hold
        D/F# C2 
and it takes a little time
                       G 
but you should see him when he shines
           Asus4 C2 G 
cause you never want to let that feeling go
          D/F# C2 G 
when you love who you love who you love.
     D/F# C2 G 
you love who you love who you love.
          D/F# C2 G 
yeah you love who you love who you love
              Cadd9 G Em 
ooh you cant make yourself stop dreaming who you're dreaming of
                 D/F# C2 G 
If it's who you love, then it's who you love.


 Em C2 G   (x4)


         D/F# C2 G 
Ohh you love who you love who you love (x3)
                              Cadd9 G Em 
ooh you cant make yourself stop dreaming who you're dreaming of
                D/F# C2 G 
If it's who you love, then it's who you love.


 Em C2 G

Who You Love chords – John Mayer V2

 WHO YOU LOVE
By: John Mayer (feat. Katy Perry)

Enjoy!!

Capo 2nd Fret

Intro:

 D ,  G ,  Cadd9 D ,  G ,  Am7 D G Cadd9 
You love who you love, who you love
      D G Am7 
You love who you love, who you love

Verse:
 
     D Em7 Cadd9 
My girl, she ain't the one that I saw coming
     D Em7 Am7 
And sometimes I don't know which way to go
       D Em7 Cadd9    
And I tried to run before, but I'm not running anymore
         D Em7 Am7 
Cause I fought against it hard enough to know

That

Chorus:
     D G Cadd9 
You love who you love, who you love
     D G Cadd9 
You love who you love, who you love
     D Em7 Cadd9 
You love who you love, who you love
              D Em7 Am7 
Oh,you can't make yourself stop dreaming who you're dreaming of
           D G Cadd9 
If it's who you love, then it's who you love

 D ,  G ,  Am7 

Verse 2: (Same chords as verse 1)

My boy, he ain't the one that I saw coming
And some have said his hearts too hard to hold
And it takes a little time, but you should see him when he shines
Cause you'd never want to let that feeling go
when

Chorus: (same as above)

Bridge:

 D ,  G ,  Am7  (X4)

Chorus (repeat same patterns as above)

Instrumentral Outro:

Same chords as chorus without any singing

Heartbreak Warfare Tabs by John Mayer V5

 Please rate this tab (my own interpretation) ... and look for more under Bruno 
Frenchy... 40 more tabs await you... 
Enjoy !! 


Intro instrumental guitar/Drum : Bass 00:07
G|------------------------------------------------------------|-
D|------------------------------------------------------------|-
A|---------------------------3/5-55-55-----3/5-55-55--3-/-7---|- X2
E|-5-55-55--0--3--55-55---5~------------5-------------------5-|-

Verse 1 : 00:27
G|------------------------------------------------------------|-
D|------------------------------------------------------------|-
A|---------------------------3/5-55-55-----3/5-55-55--3-/-7---|- X2
E|-5-55-55--0--3--55-55---5~------------5-------------------5-|-
Lightning strikes
Inside my chest to keep me up at night
Dream of ways
To make you understand my pain

00:47
G|------------------------------------------------------------|-
D|------------------------------------------------------------|-
A|---------------------------3/5-55-55-----3/5-55-55--3-/-7---|- 
E|-5-55-55--0--3--55-55---5~------------5-------------------5-|-
Clouds of sulfur in the air
Bombs are falling everywhere
It's heartbreak warfare

00:57
G|---------------------------------------------------||-
D|---------------------------------------------------||-
A|---------------------------3/5-55-55-----3/5-55-55-||- 
E|-5-55-55--0--3--55-55---5~------------5------------||-
Once you want it to begin,
No one really ever wins
In heartbreak warfare

Chorus 1 : 01:05
G|-------------------------------------------------------|-
D|---------------------------------------2-0-------------|-
A|-5-4----------------5--------------2-0-------3-2-------|- 
E|-----2-22-2-4-5-55----2--2-4-5-55----------------5--55-|-
If you want more love why don't you say so?
If you want more love why don't you say so?

Verse 2 : 01:26
G|------------------------------------------------------------|-
D|------------------------------------------------------------|-
A|---------------------------3/5-55-55-----3/5-55-55--3-/-7---|- X2
E|-5-55-55--0--3--55-55---5~------------5-------------------5-|-
Drop his name
Push it in and twist the knife again
Watch my face
As I pretend to feel no pain, pain, pain..

01:46
G|------------------------------------------------------------|-
D|------------------------------------------------------------|-
A|---------------------------3/5-55-55-----3/5-55-55--3-/-7---|- 
E|-5-55-55--0--3--55-55---5~------------5-------------------5-|-
Clouds of sulfur in the air
Bombs are falling everywhere
It's heartbreak warfare

01:56
G|---------------------------------------------------||-
D|---------------------------------------------------||-
A|---------------------------3/5-55-55-----3/5-55-55-||- 
E|-5-55-55--0--3--55-55---5~------------5------------||-
Once you want it to begin,
No one really ever wins
In heartbreak warfare.

Chorus 2 : 02:05
G|---------------------------------------------------||------|-
D|---------------------------------------2-0---------||------|-
A|-5-4----------------5--------------2-0-------2-----||-2----|- 
E|-----2-22 2-4-5-55----2--2-4-5-55---------------5--||----5-|-
If you want more love why don't you say so?
If you want more love why don't you say so?
                                                      Just say so...

Instrumental 02:28
G|-----------------------|--------------------------5-7-5-----|-
D|-2--2/5-------2~-2/5~--|-2~2/5---------2~/5---5-7-----------|-
A|--------2~-2-5-------2~|--------2~-2-5------------------7-5-|- 
E|-----------------------|------------------------------------|-

02:46
G|-----------------------------------------------|-
D|-3—3333---3-333------5-555---5-5555----7-5-----|-
A|--------3--------3-5-------5-------------------|- 
E|-----------------------------------------------|-
How come the only way to know how high you get me 
is to see how far I fall?

02:56
G|-------

Age Of Worry Tabs by John Mayer V5

 -----------------------------------------------------------------
     AGE OF WORRY - John Mayer
-----------------------------------------------------------------

With the help of a couple other tabs and two videos of John playing, I think I've put 
together a completely accurate tab (hopefully). Enjoy!


Tuning: EADGBe

(T): Use thumb on bass note
(m): Use middle finger on bass note
 x : Mute note

INTRO

For this part, it's easiest to just pick with your thumb and index finger while resting 
your other fingers on the guitar. Start out with a G shape on the third fret with your 
thumb fretting the root on the low E.

e|---------------------------------------------------------------|
B|---------5-----3-----------------------------------------------|
G|---4-----------------4-----2-----4-----0-----2-----------0-----|
D|---------------------------------------------------2-----------|
A|---------------5---5---5---3---3---3---3---3---3---3---3---3---|
E|---3---3---3---------------------------------------------------|
    (T) (T) (T)
e|---------------------------------------------------------------|
B|---------------------------------------------5-----3-----------|
G|---0-----4-----4-----------2-----------4-----------------4-----|
D|---------------------0-----------0-----------------------------|
A|---3---3---3---------------5---5---5---------------5---5---5---|
E|---------------3---3---3---------------3---3---3---------------|
                (m) (m) (m)             (T) (T) (T)
e|----------------------------------------------------------------------------|
B|----------------------------------------------------------------------------|
G|---2-----4-----0-----2---------5---4---2-----0-----0-----------0-----0------|
D|---------------------------2-----------------------------0------------------|
A|---3---3---3---3---3---3---3---3---3---3---3---3----------------------------|
E|---------------------------------------------------3---3---3---3---3---3----|
                                                    (T) (T) (T) (T) (T) (T)

If you're playing solo, you might just repeat that the rest of the song. Or, you could 
play the chords, as John often does with the 

   Gadd9           Dadd4          C6sus2
e|---5---------------5--------------5----------------------------|
B|---3---------------3--------------3----------------------------|
G|---4---------------0--------------x----------------------------|
D|---5---------------4--------------0----------------------------|
A|---x---------------5--------------3----------------------------|
E|---3---------------3--------------x----------------------------|
    (T)             (T)            (T)

These chords are pretty weird and difficult to play — I extrapolated them best I could 
from a video of a live performance on Letterman — so alternatively, use simpler open 
chords (G5, D/F#, Cadd9).

Gadd9(G5)   Dadd4(D/F#)  C6sus2(Cadd9)
Close your eyes and      clone yourself

C6sus2(Cadd9)       Gadd9(G5) Dadd4(D/F#)   Gadd9(G5)
Build your heart an ar-       my

       Dadd4(D/F#)  C6sus2(Cadd9)
To defend your      innocence

             Dadd4(D/F#)  Gadd9(G5)
While you do everything   wrong


G5       D/F#        Cadd9
Don't be scared to walk alone
Cadd9              G5   D/F#   G5
Don't be scared to like it

           D/F#          Cadd9
There's no time that you must be home, so

            D/F#          G5
Sleep where darkness falls


G5           D/F#     Cadd9
Alive in the age of worry

Cadd9               G5  D/F#
Smile in the age of wor-ry

   G5          D/F#   Cadd9
Go wild in the age of worry

         Cadd9   D/F#         G5
And say, "Worry, why should I care?"


G5   D/F#   Cadd9   Cadd9   D/F#  G5
(Oooooooooooooooh)  (Ooooooooooooooh)


G5        D/F#     Cadd9
Know your fight is not with them

Cadd9              G5   D/F#
Yours is with your time here

G5         D/F# 

Heartbreak Warfare Tab by John Mayer

This is how i play it. It's somewhat close.
s: slide
h: hammer-on
p: pull-off
e------------15----------------15-13-12-13p12-----12h15-17-17---------------|
B----17---15-----12------17-------------------------------------------------|
G---------------------------------------------------------------------------|
D---------------------------------------------------------------------------|
A---------------------------------------------------------------------------|
E---------------------------------------------------------------------------|

e----5s(8)--10-10s(12)----------15---12--------15----12----10----8---7---5--|
B-------------------10s(8)----10---10-------10----10----10----10---8---8----|
G---------------------------------------------------------------------------|
D---------------------------------------------------------------------------|
A---------------------------------------------------------------------------|
E---------------------------------------------------------------------------|

All We Ever Do Is Say Goodbye Chords – John Mayer

Tabbed by: Mayer95

Tuning: Half Step Down
All bass notes are played with thumb.

                          CHORDS USED

   E  C#m  G#m  Bm7  A  F#m  B  Dm7
|--0---x----x----x---x---x---x---x-----------|
|--0---5----4----4---5---2---7---7-----------|
|--1---6----4----4---6---2---8---7-----------|
|--2---6----6----4---7---4---9---7-----------|
|--2---4----x----2---x---x---x---5-----------|
|--0---x----4----x---5---2---7---x-----------|

E          C#m             G#m
Just when I had you off my head

Bm7                          A               A F#m  E
Your voice comes thrashing wildly through my quiet bed

E            C#m       G#m
You say you wanna try again

Bm7               A           A F#m   E    F#m
But I've tried everything but giving in

Bm7                                 F#m
Why you wanna break my heart again

Bm7
Why am I gonna let you try

      E         C#m          B
When all we ever do is say goodbye

B           A              E
All we ever do is say goodbye

E          C#m      G#m
All we ever do is say goodbye

B           A              E
All we ever do is say goodbye

E          C#m             G#m
I bought a ticket on a plane

Bm7                   A               A  F#m  E
And by the time it landed, you were gone again

E            C#m              G#m
I love you more than songs can say

Bm7               A           A F#m   E    F#m
But I can't keep running after yesterday

Bm7                                 F#m
Why you wanna break my heart again

Bm7
Why am I gonna let you try

      E         C#m          B
When all we ever do is say goodbye

B           A              E
All we ever do is say goodbye

E          C#m      G#m
All we ever do is say goodbye

B           A              E
All we ever do is say goodbye

A
We say goodbye

A
We say goodbye

E
We say goodbye

SOLO
e|---------------------------------------------------------------|
B|---------------------------------------------------------------|
G|-7/9--14\11----------7/9--16\11--9/11/13--11/13--9/11/13--11/13|
D|------------7/9\7/9--------------------------------------------|
A|---------------------------------------------------------------|
E|---------------------------------------------------------------|

e|---------------------------------------------------------------|
B|-------14------------12--14/17---------------------------------|
G|14\13-----13--14\13--------------------------------------------|
D|---------------------------------------------------------------|
A|---------------------------------------------------------------|
E|---------------------------------------------------------------|     

E         C#m          B
All we ever do is say goodbye

B           A              E
All we ever do is say goodbye

E          C#m      G#m
All we ever do is say goodbye

B           A              E
All we ever do is say goodbye

| /  slide up
| \  slide down
| h  hammer-on
| p  pull-off
| ~  vibrato
| +  harmonic
| x  Mute note

Perfectly Lonely Tab by John Mayer

-------------------------------------------------------------------------------
			    Perfectly Lonely - John Mayer
-------------------------------------------------------------------------------
Tabbed by: kurrent	

my favorite song from the battle studies album so far...picked up the guitar and 
tried to figure out the beginning. this is only meant to be a rough start till 
somebody who really knows what they are doing comes along and does it right. 

e|---------------------------------------------------------------------------|
B|--13/15---13/15---18-17--15-13---------------------------------------------|
G|--12/14---12/14------------------------------------------------------------|
D|---------------------------------15~~~-------------------------------------|
A|---------------------------------------------------------------------------|
E|---------------------------------------------------------------------------|

e|---------------------------------------------------------------------------|
B|--13/15---13/15---18-17--15-13---------------------------------------------|
G|--12/14---12/14------------------12~~~---12h14h16p12~~---------------------|
D|---------------------------------------------------------------------------|
A|---------------------------------------------------------------------------|
E|---------------------------------------------------------------------------|

e|----------------------------------------------13---------------------------|
B|--15b17-15b17~~~~---------13~~~h15-----15b17-----15b17r15~~~~--------------|
G|------------------12h14----------------------------------------------------|
D|---------------------------------------------------------------------------|
A|---------------------------------------------------------------------------|
E|---------------------------------------------------------------------------|

e|------------------------------15b17(17)r15v~~~~~~--------------------------|
B|---------------------------------------------------------------------------|
G|---14b16r14p12--12~~h(14)--------------------------------------------------|
D|--------------14-----------------------------------------------------------|
A|---------------------------------------------------------------------------|
E|---------------------------------------------------------------------------|

The verse of the song is just a simple C, F, Dm, G progression. Have fun.

| /  slide up
| \  slide down
| h  hammer-on
| p  pull-off
| ~  vibrato
| +  harmonic
| x  Mute note
===============================================================================

Half Of My Heart Chords – John Mayer feat Taylor Swift

Tuning: Standard

If you prefer ( i like it a lot), you can use: 

x13311 instead of Bb
x35533 instead of C
x5356x instead of Dm 

Enjoy.

----------------------------------------------------------------
Bb F C Dm
Bb F C
Bb F C Dm
Bb  

Bb      F           C        Dm     Bb       F  C
  I was born in the arms of imaginary friends

Bb        F            C           Dm          Bb      F  C
  Free to roam, made a home out of everywhere I've been
Bb                      F
Then you come crashing in
         C       Dm
Like the realest thing
Bb                      F                  C
Trying my best to understand all that your love can bring

    Bb         F             C          Dm
Oh, half of my heart's got a grip on the situation
Bb         F           C
Half of my heart takes time
Bb         F               C          Dm
Half of my heart's got the right mind to tell you that
  Bb
I can`t keep loving you
          C     F C Dm Bb
Oh, half of my heart

F C Dm Bb

Bb      F         C               Dm        Bb  F   C
  I was made to believe I'd never love somebody else
Bb         F                C           Dm     Bb    F   C
  I made a plan, stayed the man who can only love himself
Bb                    F
Lonely was the song I sang
         C       Dm
'Til the day you came
Bb                  F                   C
Showing me a better way and all that my love can bring

   Bb         F             C          Dm
Oh, half of my heart's got a grip on the situation
Bb         F           C
Half of my heart takes time
Bb         F               C          Dm
Half of my heart's got the right mind to tell you that
  Bb
I can`t keep loving you
          C     F C Dm Bb               F C Dm Bb
Oh, half of my heart   with half of my heart

     F         Am7
Your faith is strong
          Cm7                Gm
But I can only fall so far so long
        F           Am7
Time to hold, later on
         Cm7                    Gm
You will hate that I never gave more to you
     Bb
than half of my heart
      C
But I can't stop loving you
      Bb
But I can't stop loving you
      C
But I can't stop loving you

                 Bb         F    C Dm
With half of my, half of my heart
    Bb         F    C
Oh, half of my heart
Bb         F             C         Dm
Half of my heart's got a real good imagination
Bb         F           C
Half of my heart's got you
Bb         F             C          Dm
Half of my heart's got a right mind to tell you
     Bb         F           C
That half of my heart won't do

Bb         F          C       Dm           Bb           F         C
Half of my heart is a shotgun wedding to a bride with a paper ring
Bb         F            C         Dm
Half of my heart is the part of a man who's never
Bb          F        C
truly loved anything

    Bb         F    C Dm
Oh, half of my heart
    Bb         F    C
Oh, half of my heart
Bb         F    C Dm
Half of my heart
    Bb         F    C
Oh, half of my heart
Bb         F    C Dm
Half of my heart
    Bb         F    C
Oh, half of my heart
Bb         F    C Dm  .....fading
Half of my heart

Heartbreak Warfare Chords – John Mayer

Standard Tuning

Chords used by John (you can play the full notes, it doesn't matter, but i think it
better this way):
A     x02220
D/F#  2x023x
F#m   2x422x
F     1x3213
C     x32013
G     320033

OBS : To the big E string John uses the tong to hold the note or kill it (x).It's cool,
more pratical.

OBS2: The parts with A : you can switch the freets played in the B string, 0, 2 or 3
usual) and on the G string too, 2 (usual) or 4.

OBS3: The parts with D/F# : you can switch the freets played in the B string, 0, 2 or 3
usual).

Make yourself comfortable to choose the combinations you like, John himself doesn't have
pattern.

-------------------------------------------------------------------------------------
A D/F#
A D/F#

A
Lightning strikes
                           D/F#
Inside my chest to keep me up at night
A
Dream of ways
                         D/F#
To make you understand my pain

A
 Clouds of sulfur in the air
Bombs are falling everywhere
     D/F#
It's heartbreak warfare
A
 Once you want it to begin,
No one really ever wins
   D/F#
In heartbreak warfare

       F#m        A
If you want more love,
               D/F#
why don't you say so?
       F#m        A
If you want more love,
               D/F#
why don't you say so?

A
Drop his name
                         D/F#
Push it in and twist the knife again
A
Watch my face
                       D/F#
As I pretend to feel no pain

A
 Clouds of sulfur in the air
Bombs are falling everywhere
     D/F#
It's heartbreak warfare
A
 Once you want it to begin,
No one really ever wins
   D/F#
In heartbreak warfare

       F#m        A
If you want more love,
               D/F#
why don't you say so?
       F#m        A
If you want more love,
               D/F#
why don't you say so?

     F       C G      (check the time for this passage,G to C, it's
Just say so...         quick comparing the time you stay on F)

F    C G
F    C G
F    C G

F
 How come the only way to know how high you get me
      G
is to see how far I fall
F
 God only knows how much I'd love you if you let me
      G
but I can't break free at all.
         A
It's a heartbreak...

A
 I don't care if we don't sleep at all tonight
           D/F#
Let's just fix this whole thing now
A
 I swear to God we're gonna get it right
       D/F#
If you lay your weapons down
A
 Red wine and ambien
                                D/F#
You're talking shit again, it's heartbreak warfare
A
 Good to know it's all a game
                                D/F#
Disappointment has a name, it's heartbreak warfare

A D/F#  ...