Tag: medicine

Medicine Hat chords – Pond V3

 
Play all chords as bar chords.

Intro

 Em Bm C G G D          (C)  G C G Em Bm C G 
Been walking in circles so long
 G D               (C)  G C G Em Bm C D 
My head is spinning, direction’s gone
 D Em C G C G Em Bm C G 
The night is darkest just before the dawn
 G D                      (C)  G  
So goodbye, my friend, it’s time to move on

 C G 
Taking some time
 C G 
To clear out my mind
 C D Em Bm C G 
Change up the light

 G D         (C)    G C G Em Bm C G 
Oh, why did I leave it so long?

 G D              (C)    G C G Em Bm C D 
Drawn in and caught up in the drone
 D Em C G C G Em Bm C G 
I guess I’m saying that this alibi was wrong
 G D                (C)  G 
Remembering is hardest when you’re alone

 C G 
Broken and cold
 C G 
Stuck on a map
 C D Bm Am 
Well on my way to Medicine Hat

 Am D Em C G Bm  (repeat till end)


Medicine chords – Broken Bells

 E D G A 
This ordinary room is turning
      E D G A 
into something of a prison oh
         E D G A 
and the only thing we know for certain is that
 E D G A 
don't nobody know

 C D 
You think none of this real that's
 G A 
why you never try
    C 
so tear me down or
 D 
build me up just the same

 E D G A 
   Oooh,     aaah

    E D G A 
Condone another lonely evening
             E D G A 
when you're staying up counting omens
         E D G A 
and the morning is it so disturbing that you
 E D G A 
just won't let it go?

           E D G A 
You think hurting gives you license (license)
       E D G A 
to do anything at all (anything)
         E D G 
But you gotta take your medicine (medicine)
   A E D G A 
Allow your hands to lose their grip and let it fall

 E D G A 
   Oooh,     aaah

        E D G A 
It's a wonder anyone can breathe here
          E D G A 
with the smoke to thick to cough
          E D G A 
So we've fallen as we run for cover from the
 E D G A 
bombs we're setting off


           E D G A 
You think hurting gives you license (license)
       E D G A 
to do anything at all (anything)
         E D G 
But you gotta take your medicine (medicine)
   A E D G A 
Allow your hands to lose their grip and let it fall

 E D G A 
   Oooh,     aaah

   A E D G A 
Allow your hands to lose their grip and let it fall

 C D         
So we watch another good day fading
 G A 
How we gonna leave the hangman hanging
 C D 
Girl one day you know we'll know
               E 
enough to get better


 E D G A 
   Oooh,     aaah

No Medicine For Regret Tabs by Mogwai

 ---------------------------------------------------------------------------
                         NO MEDICINE FOR REGRET - Mogwai
---------------------------------------------------------------------------
:fallwind

Tuning: standard

you have to listen to the song to get the timings and stuff

guitar 1 part 1
e|--------------------------------------------------------------------------|
B|--------------------------------------------------------------------------|
G|--------------------------------------------------------------------------|
D|--7-9-10-12--9-10-9-7--7-9-10-12--9-10-9-7--7-9-10-12-9--9-10-9-9-10-9-7--|
A|--0----------0---------0----------0---------0------------0------0---------|
E|--------------------------------------------------------------------------|

e|--------------------------------------------------------------------------|
B|--------------------------------------------------------------------------|
G|--------------------------------------------------------------------------|
D|--7-9-10-12-9--9-10-9-7---------------------------------------------------|
A|--0------------0----------------------------------------------------------|
E|--------------------------------------------------------------------------|

guitar 1 part 2 (very hard to determine, just a rough outline, you may do better on your own)
e|-------0----0---0---------------------0--0---3------0---------0---0------|
B|----3----3---3---3--0--0--0--0--1--0----3--3---1-----3--0--0----3---3-3--|
G|--5--5-----5--5---5---5--5--5--5--2--5-------5---2--------5--5-----------|
D|-------------------------------------------------------------------------|
A|-------------------------------------------------------------------------|
E|-------------------------------------------------------------------------|

e|--0-0-0------------------------------------------------------------------|
B|---3---3-0--0---0--0-----------------------------------------------------|
G|----------5--5-5-5-------------------------------------------------------|
D|-------------------------------------------------------------------------|
A|-------------------------------------------------------------------------|
E|-------------------------------------------------------------------------|

then again part 1,but only the last two fractions of it repeated (just listen to the 
song) and then this at the end
e|-------------------------------------------------------------------------|
B|-------------------------------------------------------------------------|
G|-------------------------------------------------------------------------|
D|--9-10-9--9-10-7---------------------------------------------------------|
A|--0-------0--------------------------------------------------------------|
E|-------------------------------------------------------------------------|

then part 2 with random variation, then turns electric and goes these notes with various 
length, just listen
e|-------------------------------------------------------------------------|
B|-10...--12...--13...--12...--10...--8...--6...--8...--15..--10..--12..---|
G|-------------------------------------------------------------------------|
D|-------------------------------------------------------------------------|
A|-------------------------------------------------------------------------|
E|-------------------------------------------------------------------------|

e|-------------------------------------------------------------------------|
B|--15..--10..--8..--10..--17..--12..--15..--10..-- 10..--8..--6..--10..---|
G|-------------------------------------------------------------------------|
D|-------------------------------------------------------------------------|
A|-------------------------------------------------------------------------|
E|-------------------------------------------------------------------------|

e|----------------------------

Kings Of Medicine chords – Placebo V3

 100% correct. Same chords used in the song. Enjoy!



Tuning: Half-step down

C5: 8 10 X X X X
G5: 3 5 X X X X
F5: 1 3 X X X X
E5: 0 2 X X X X
A5: 5 7 X X X X



 C5 
They're picking up pieces of me
 G5 
While they're picking up pieces of you
 F5 
In a bag you will be before the day is over
 C5 
Were you looking for somewhere to be?
 G5 
Were you looking for someone to do?
 F5 
Stupid me to believe that I could trust in stupid you

 E5 F5 
And on the back of my hand
Were directions I could understand
Now that old buzzer Johnnie Walker
Has gone and ruined all our plans
Our best made plans

 C5 G5 
Don't leave me here to pass for time
 A5 E5 
Without a map or road sign
 C5 G5 
Don't leave me here my guiding light
 A5 E5 
'Cause I, I...


 F5 E5 
Wouldn't know where to begin
I ask the Kings of Medicine

 C5 
They're picking up pieces of me
 G5 
While they're picking up pieces of you
 F5 
Lying on ice you will be before the day is over
 C5 
So case and point may be
 G5 
That you never thought it through
 F5 
Stupid me to believe I could depend on stupid you

 E5 F5 
And on the tip of my tongue
Were words that always came out wrong
'Cause they were drowned in Southern Comfort
And left to dry out in the sun
The noon day sun

 C5 G5 
Don't leave me here to pass for time
 A5 E5 
Without a map or road sign
 C5 G5 
Don't leave me here my guiding light
 A5 E5 
'Cause I, I...

 F5 E5 
Wouldn't know where to begin
I ask the Kings of Medicine
But it seems they've lost their powers
Now all I'm left with is the hours

 [Interlude:]   C5 G5 A5 E5   [2X]


 C5 G5 
Don't leave me here to pass for time
 A5 E5 
Without a map or road sign
 C5 G5 
Don't leave me here my guiding light
 A5 E5 
'Cause I, I...

 F5 E5 
Wouldn't know where to begin
I ask the Kings of Medicine
But it seems they've lost their powers
Now all I'm left with is the hours

 C5 G5 A5 E5 
Don't leave me here
Don't leave me here
Oh no

 [Outro:]
 F5 E5 
I wouldn't know where to begin

Phase Ii Symmetry – Xx Dark Medicine Tabs by Ayreon

                                           Artist - Ayreon
                                         *****************
                             Song - Phase II Symmetry - XX. Dark Medicine 
                            **********************************************
                                   Album - The Theory Of Everything
                                  **********************************
                                         - Ayreon77
                                       **********************

[Therapist]
        I know why you're....                   You're a fellow.... 
[Father]
        The choice is clear....                 I don't need to be....
 Am            Dm            C                     E
[-------0-----|-------1-----|------------0--------|--------0-----]
[---------1---|-----3---3---|--------------1------|----------0---]
[-----2-----2-|---2-------2-|---------0------0----|-----1------0-]
[---2---------|-0-----------|-------2-------------|---2----------]
[-0-----------|-------------|-0-2-3-------------3-|-2------------]
[-------------|-------------|---------------------|--------------]

               Our point of view is very much alike

               Denying him this chance just isn't right
 Am            Dm            F                 E
[-------0-----|-------1-----|-----------1-----|-------0-----]
[---------1---|-----3---3---|---------1---1---|-----0---0---]
[-----2-----2-|---2-------2-|-------2-------0-|---1-------1-]
[---2---------|-0-----------|-0-2-3-----------|-2-----------]
[-0-----------|-------------|-----------------|-------------]
[-------------|-------------|-----------------|-------------]


Guitar 2 (CAPO 7th FRET)
*************************
[Therapist]
      Give him one a day....                  That's the safest place.....

 Am            Dm            C                     E
[-------0-----|-------1-----|------------0--------|--------0-----]
[---------1---|-----3---3---|--------------1------|----------0---]
[-----2-----2-|---2-------2-|---------0------0----|-----1------0-]
[---2---------|-0-----------|-------2-------------|---2----------]
[-0-----------|-------------|-0-2-3-------------3-|-2------------]
[-------------|-------------|---------------------|--------------]

               At such a tiny dose The risks are low
                
 Am            Dm            F                 E
[-------0-----|-------1-----|-----------1-----|-------0-----]
[---------1---|-----3---3---|---------1---1---|-----0---0---]
[-----2-----2-|---2-------2-|-------2-------0-|---1-------1-]
[---2---------|-0-----------|-0-2-3-----------|-2-----------]
[-0-----------|-------------|-----------------|-------------]
[-------------|-------------|-----------------|-------------]

[Father]
      Keep it between you and me....          Oh They would never....
 Bm            Am            Em            F
[-------------|-------------|-------------|-------------]
[-------3-----|-------1-----|-------0-----|-------2-----]
[-----4---4---|-----2---2---|---------0---|-----3---3---]
[---4-------4-|---2-------2-|-----2-----2-|---4-------4-]
[-2-----------|-0-----------|---2---------|-4-----------]
[-------------|-------------|-0-----------|-------------]

               Let's both agree that no one needs to know
 Bm            Am            Em            F
[-------------|-------------|-------------|-------------]
[-------3-----|-------1-----|-------0-----|-------2-----]
[-----4---4---|-----2---2---|---------0---|-----3---3---]
[---4-------4-|---2-------2-|-----2-----2-|---4-------4-]
[-2-----------|-0-----------|---2---------|-4-----------]
[-------------|-------------|-0-----------|-------------]


[Therapist]
I know why you're here You're a fellow man of science Our point of view is very much alike
[Father]
The choice is clear I don't need to be convinced Denying him this chance just isn't right
[Therapist]
Give hi

Medicine chords – Von Benzo

 Intro:

 A C G   x2


Vers:

 A  (let ring)

Chords

 G       x1

 A C G   x4


Solo

 A C G D A C G D E A C G D  (Druing the solo)


intro
vers
chords
vers 2 (same as vers 1, or waht sounds beter to you)
Chords
solo
chords


Lyrics 

Vers 1

I learn to cry on command
I gusse its bader when i´m sad
Hey Yeah
Hope you understand
That i be happy when i´m dead
Hey yeah hey yhea yeah yeah yeah

Chords

Cause i need my medicine
To make me feel good again
Cause i need my medicine
To make me feel good again

Vers 2

I even like it when it hurts
I need some thing to crinch my thirst
Hey yeah
I´m surfing on the sand
Cause i´m even ??????
Hey yeah hey yeah yeah yeah yheah

Chords 



And the same goes on hole song.  so it not 100 korekt. 

Hoodoo Voodoo Medicine Man intro Tabs by Aerosmith

 Hello ! Here's my first guitar tab , there's only the riff but I find it sounds good ... 
I don't own any rights for the song/music .



e-----------------------|
B-----------------------|
G------------------4--2-|
D-------4--2------------|
A----4----------4-------|
E--2----------2---------|


for any questions or ask it here : axlrproduction

don't hesitate to send corections

Manifiesto chords – Nahko And Medicine For The People

 Manifiesto

 C 
Well this is real talk
 C7 
This is not on start
 Fmaj7 G 
It is looped now tongue and mind

Played off the sidewalk 
Straight to your boombox
How it travels from ear to memory

Well this is medicine 
And there is message within
And each will find it within their own time

Well this is music
This is how I use it
It makes you move and move the movement

This is how I focus
Knowing it's not hopeless 
But it sure starts with me and ends on a whole note 

Musical medicine
This is my healing 
For past and present future things to come

I see people stressing 
Over space and possessions
Out of fear and need for visual aids of our abundance

Give me examples 
Or something tangible 
Something I can get my hands on and find real meaning

Where is the medicine
That I've been searching 
And I suppose each will find their own kind

Well everything is at stake
It makes it hard to concentrate,
And there are men who see war and see a paycheck

Such a different programming 
To live so fearfully
Terror this and terror that terrible reality

There is no medicine
On the television
So turn it off and turn yourself around

And let's just face it 
The world is fucking racist
Even the most peaceful of us get caught in the trend

To live cohesively 
Almost is a fantasy
And we ought to know it starts with humbling our egos 

What is the medicine 
For cultural wounding
Has its moments, has its melody, has its times 

Well I was listening
To the outgoing seasons 
About climate change and some other reason 

When the sky opened 
Like I've been hoping
And there came horses by the thousands

And there was thunder on their tongues
And lightning on their minds
And they were singing this old melody from some other time 

(3x) 
 Fmaj7 G C Am  
They sang
Don't waste your hate, 
Rather gather and create

 Fmaj7 G C  
Be of service
Be a sensible person
Use your words and don't be nervous

You can do this
You've got purpose 
Find your medicine and use it

@kmurav