Tag: Melody

Hopeful chords – Bars And Melody Vsion 3

 -------------------------------------------------------------------------------
                           HOPEFUL - Bars and Melody
-------------------------------------------------------------------------------

Capo 3/4
Standard Tuning

* = Strum Once

Riff/Intro:

e|-------------------------------------|
B|----1----0----1-------5----8----1----|
G|---0----0----2-2-2---5----9----2-2-2-|
D|--2----0----2---2---5----9----2---2--|
A|-3----2----0-------3----7----0-------|
E|-------------------------------------|

Capo 3

[Verse 1]
        C G 
Please help me God, I feel so alone
     Am 
I'm just a kid, I can't take it on my own
      C G 
I've cried so many tears, yeah, writing this song
 Am 
Trying to fit in. Where do I belong?
   C G 
I wake up every day, don't wanna leave my home
    Am 
My mamma's askin' me why I'm always alone
     Dm Em 
Too scared to say, too scared to holler
 F *
I'm walking to school with sweat around my collar
     C G 
I'm just a kid, I don't want no stress
    Am 
My nerves are bad, my life's a mess
     C G 
The names you call me, they hurt real bad
   Am 
I want to tell my Mom

She's havin' trouble with my Dad
 C G 
  I feel so trapped, there's nowhere to turn
 Am 
Come to school

Don't wanna fight I wanna learn
  Dm 
So please mister Bully
      Em 
Tell me what I've done
     F *
You know I have no Dad

I'm livin' with my Mom


[Chorus]
            C G 
'Cause I'm hopeful, yes, I am
 Am 
Hopeful for today
           C G 
Take this music and use it
        Am 
Let it take you away
        C G 
And be hopeful, hopeful
     Am 
And He'll make a way
   Dm Em F 
I know it ain't easy but that's okay
         C 
Just be hopeful


[Verse 2]
                        G 
Why do you trip at the colour of my skin
     Am 
And whether I'm fat or whether I'm thin
     C G 
You call me loser, you call me a fool
   Am 
I ain't got a choice, I gotta go to school
   C G 
I wish I had an angel to stand by my side
     Am 
I'm shaking with fear, I'm so scared inside
 Dm Em 
Doesn't really matter if I ain't got the looks
            F *
Why do you always hurt me and destroy my books?


[Chorus]
            C G 
'Cause I'm hopeful, yes, I am
 Am 
Hopeful for today
           C G 
Take this music and use it
        Am 
Let it take you away
        C G 
And be hopeful, hopeful
     Am 
And He'll make a way
   Dm Em F 
I know it ain't easy but that's okay
         C *
Just be hopeful


[Verse]
                         G *
I give you all my money every single day
          Am *
I didn't ask to be born but now I have to pay
   C *                      G *
I ain't got no food, you take all I have
 Am *
When I give it to you, you search through my bags
   C G 
I wrote this song for you to see
    Am 
We could've been friends, yeah you and me
 Dm Em 
Mister bully, take a moment please
       F *
Every single day you bring me to my knees


Capo 4

[Chorus]
            C G 
'Cause I'm hopeful, yes, I am
 Am 
Hopeful for today
           C G

Melody chords – cro

 Melodie- Cro    
(MTV – unplugged) (Capo 3. Bund)

Intro: C-  Em  –  Am  –  F 
(Rap)
                        C 
Ey yo, ich hab so das Gefühl dieser Tag könnte dope
                    Em 
Reiß alle Fenster raus und dann leg die Mucke auf
                       Am 
Leg die Fernbedienung weg, Leb den Film so wie ich
                              F 
Denn mein Nachbar hört jetzt Rap ob er will oder nicht

                        C 
Denn ich fühl mich so fly 
                        Em 
Denn ich fühl mich so fly
(Wenn ich rhyme bin ich weit, weit weg)
          Am 
Von dem Streit, Jedem Stress, ganz allein, bleib relaxt
          F 
Bin mein eigener Chef, dieses Life ist perfekt


(langsam (Chor))
          C Em 
Wenn die Angst mich verfolgt und die Zweifel mich fast wieder kill`n ...
                 Am 
Weil ich nicht weiß was passiert ...
                                       F 
Ich will schreien, aber bleib lieber still ...
               C Em 
Und wenn die Zeit nicht vergeht, weil es einfach nicht läuft wie man will ...
                          Am 
Doch dann kommt diese Melodie, dieses Lied
                                                F 
Ich war nie so verliebt  - war noch nie so verliebt,

                             C Em 
Und alles beginnt sich zu dre –h -en
                            Am F 
Und alles beginnt sich zu dre- h- en
                             C Em 
Und alles beginnt sich zu dre-h- en
                            Am F 
Und alles beginnt sich zu dre–h(beginnt sich zu/beginnt sich zu) dreh`n
                              C 
Und alles beginnt sich zu dre-h`n

(Rap)
 C 
Ist schon klar, manchmal ist es hart
       Em 
Doch ich sitz nicht zuhaus' und denk' den ganzen Tag nur nach
      Am 
Wenn Leute sagen, rapp' mal wieder so wie vor 'nem Jahr
         F 
Damals warst du noch mein Star - Ist mir so was von egal


 C 
Black on Black - Versace-Dress, Der deutsche Kanye West
 Em 
Nur nicht ganz so arrogant, bin eher so sympathisch nett
 Am 
Große Bilder,  Art Attack, der Typ der auf sich warten lässt
 F 
Doch komm ich auf die Party, dann halt besser deine Platin fest


(langsam,(Chor)
 C Em 
Wenn die Angst mich verfolgt und die Zweifel mich fast wieder kill`n ...
                Am 
Weil ich nicht weiß was passiert ...
                                       F 
Ich will schreien, aber bleib lieber still ...
               C Em 
Und wenn die Zeit nicht vergeht, weil es einfach nicht läuft wie man will ...
                        Am 
Doch dann kommt diese Melodie, dieses Lied
                                      F 
Ich war nie so verliebt,-  war noch nie so verliebt
 
                             C Em 
Und alles beginnt sich zu dre –h -en
                            Am F 
Und alles beginnt sich zu dre- h- en
                             C Em 
Und alles beginnt sich zu dre-h- en
                            Am F 
Und alles beginnt sich zu dre–h(beginnt sich zu/beginnt sich zu) dreh`n
                              C 
Und alles beginnt sich zu dre-h`n


Outro:  C  /  Em  /  Am  /  F

Melody Cinta 2 chords – Rhoma Irama

 Melody Cinta 2 - Rhoma Irama (Soneta)



Intro :  Am Dm Am Am Dm Am Am Dm F Am 
Melodi cintaku yang indah..
    Dm F Am 
Berkesan di dalam hatiku
 Am 
Terkenang selalu…tiada terlupakan…
            Dm Am 
Walaupun penuh duka lara

   Dm F Am 
Melodi cintaku yang indah..
 Am 
Terkenang selalu…tiada terlupakan…
            Dm Am 
Walaupun penuh duka lara
   Dm F Am 
Melodi cintaku yang indah..

Int :  Am Am Am Dm Am 
Kujual bajuku…....oh karena dia…
 Am Dm Am 
Celana pun terbang…….hai berpindah tangan
 Am 
Ini semuanya…gara-gara cinta…
            Dm Am 
Melayang bajuku semua…
   Dm F Am 
Melodi cintaku yang indah..

Int :  Am Am Am Dm Am 
Kujual bajuku…....oh karena dia…
 Am Dm Am 
Celana pun terbang…….hai berpindah tangan
 Am 
Ini semuanya…gara-gara cinta…
            Dm Am 
Melayang bajuku semua…

  Dm F Am 
Setelah semuanya sirna
   Dm F Am 
Akhirnya ‘ku malu bertemu
 Am 
Bila dia datang aku pun menghilang
            Dm Am 
Menghindar dari pertemuan

     Dm F Am 
Akhirnya ku malu bertemu
 Am 
Bila dia datang aku pun menghilang
            Dm Am 
Menghindar dari pertemuan
   Dm F Am 
Melodi cintaku yang indah..

Melody Road chords – Neil Diamond

 Intro   C F G F C F C C G C 
Melody road I'm on with you
 Dm G 
All the way to the end
 C G F 
I know every song you lead me to
    C F G 
Is gonna be my friend
 C G C 
Melody road I play all night
 Dm G 
Take my guitar and strum
 C G F     
Find me some words that feel just right
     C F G F C F C 
The music's gonna come from Melody Road
 C F 
Melody from the heart,
 D G 
Melody from the start,
 E F 
Telling things will be okay
   C Dm 
I think that I just might stay
    G7 C F C 
On Melody Road
 C G C 
Melody Road, let's go a mile
 Dm G 
I'll tie on my rambling shoes
 C G F 
Write me a song to make you smile
         C F G 
There's no need to sing the blues,
    F C F C 
On Melody Road
 C F 
Melodies that unfold,
 D G 
Melodies made of gold,
 E F             
Making up songs along the way
 C Dm 
I'm thinking I just might stay
    G7 C F C 
On Melody Road

SOLO is a verse 
 C G C Dm G C G F C F G F C F C C F 
Ringing out like a bell
 D G 
Singing out I can tell
 G G7 
I'm not alone
 C G C 
Melody Road it's you and me
 Dm G 
Floating out on a dream
 C G F 
I love every song that comes to me
        C F G 
'Cause I know it comes to be
    F C F C F C F C 
On Melody Road,          Melody Road
 F C F C F C F C 
Melody road,             Melody Road
 F C 
Melody Road!

Velvet Mornings chords – Demis Roussos

 Capo II 

      D C G D C G  
La la la la la la la la la la la la la la la la la la la la la la la la la la la  

 G C G  
Velvet mornings will come every new day 
 G C Am                                
Golden sunrise and the scent of rain 
         D                    
Whisper softly a melody  
    C 
of love words In ecstasy
     G D C G     
as you lie so very close to me 
 
       D C G D C G  
La la la la la la la la la la la la la la la la la la la la la la la la la la la  

 C G                                      
Triki, triki, triiiiiki, triiiki, triki, Mon Amour, triki, triki, triki, triiiiii 
 C G  
Triki, triki, triiiiiki, triiiki, triki, Mon Amour, triki, triki, triki, triiiiii 
 Am G  
Triki, triki, triiiiiki, triiiki, triki, Mon Amour, triki, triki, triki, triiiiii 
 Am F# D7  
Triki, triki, triiiiiki, triiiki, triki, Mon Amour, triki, triki, triki, triiiiiiiiiiiiiii
 
 G C G  
Velvet mornings gently touching my face 
 G C Am                                
Come and find me in your warm embrace 
        D                            
As you wake up and smile to me 
     C                
you make real my reverie
     G D C G                      
and I know my day begins and ends with you 

       D C G D C G  
La la la la la la la la la la la la la la la la la la la la la la la la la la la   
 
 C G                                      
Triki, triki, triiiiiki, triiiki, triki, Mon Amour, triki, triki, triki, triiiiii 
 C G  
Triki, triki, triiiiiki, triiiki, triki, Mon Amour, triki, triki, triki, triiiiii 
 Am G  
Triki, triki, triiiiiki, triiiki, triki, Mon Amour, triki, triki, triki, triiiiii 
 Am F# D7 G 
Triki, triki, triiiiiki, triiiki, triki, Mon Amour, triki, triki, triki, triiiiiiiiiiiiiii

Dead Mans Hand On You Tabs by Children Of Bodom

 Children Of Bodom
Dead Man's Hand On You
Halo Of Blood (2013)
 Mike Shaheen
 ever, but this should be 99% accurate
Tuning - DAFGCD
Key:
(\) Slide Down


This melody should get you through the entire song, however about 2/3
through the song Alexi does some wicked solo riffs and I have yet to tab
that out, but this melody will get you though that part if you repeat it.
This is by far the easiest Bodom song you can learn.

The best way to read this is there are 4 riffs, and they go in the following order:
1, 2, 1, 2,
1, 3, 1, 4,
1, 3, 1, 4,
1, 3, 1, 4


Riff 1:

D|-------------------------------------------------|
A|-------------------------------------------------|
F|--------0-----------0-----------0----------------|
G|-----7-----7-----7-----7-----7-----7-----7\5-----|
C|--5-----------5-----------5-----------5-------3--|
D|-------------------------------------------------|

Riff 2:

D|----------------------------------------------------|
A|-------------------------------------------------0--|
F|--------0-----------0------------0------------5-----|
G|-----7-----7-----7-----7-----10-----10-----7--------|
C|--5-----------5-----------8-------------7-----------|
D|----------------------------------------------------|

Riff 3:

D|--------------------------------------------------|
A|--------------------------------------------------|
F|--------------5--------------------5--------------|
G|-----------7-----8--7--5--7-----7-----7-----5--5--|
C|--5--7--8--------------------8-----------7--------|
D|--------------------------------------------------|

Riff 4:

D|--------------------------------------------------|
A|-----------------------------------5-----------5--|
F|--------------5-----------5-----5-----5-----5-----|
G|-----------7-----8--7--8-----7-----------7--------|
C|--5--7--8-----------------------------------------|
D|--------------------------------------------------|

Summer Guest chords – Asgeir

 Summer Guest
Ásgeir

 Vincent Castonguay

* Original song is tuned half-step down


 E E A E 
My bird flies home from afar
 E B E 
Brings the joy of spring to me
 E A E 
O'er the ocean's endless blue
          B E A E 
He never fails, his path is clear and true


 E E A E 
Perched upon a branch of green
 E B E 
He rests his legs from the long journey
 E A E 
Warms my heart with one true song
          B E A E 
I listen close, to tales of battles won


 B A Dbm F# 
From my heart I thank you friend for this precious melody
           B A Abm A 
For these sweet and pure tones, sweet and pure tones


 E E A E 
When the autumn comes again
 E B E 
I ask you from my heart, my friend
 E A E 
that you'll help me sing your song
            B E A E 
Oh, summer guest, I'll miss you while you're gone.

 B A Dbm F# 
From my heart I thank you friend for this precious melody
           B A Abm A 
For these sweet and pure tones, sweet and pure tones


 E B A Dbm F# 
You made a shelter for my soul if your language I could speak
         B A Abm A 
I would weave a song for you of my own


 E E E E A E E E B E E E A E B E A E E

Spring To Come Tabs by John Butler Trio

 -----------------------------------------------------------------------------
                    Spring To Come - John Butler Trio
-----------------------------------------------------------------------------

First of all I'd like to thank John Butler and his current and former bands for creating
such impressive, intense and beautiful music!

This tab only contains the awesome interlude and outro part because the other parts are
perfectly explained by John Butler himself in this video:

This tabs could be useful too:
http://www.guitarworld.com/acoustic-nation-video-lesson-play-it-now-john-butler-
teaches-us-play-spring-come

It was quite confusing to identify the timing of the melody along base-rhythm. I think I
finally figured it out correctly, so I thought: Let's share it!
If you have problems with the rhythm have a look at the video-link at the top. In the
end John plays the part really slowly, perhaps that helps you to get a feeling for the
timing. Also it is important to use the thumb for playing the base-notes G and D (or C
and D) in order to stick to the beat.
I hope there are no major mistakes in this tab nor my language, if else please use the
comment-section. :)

Tuning: C G D G b d

   1   +   2   +   3   +   4   +    1   +   2   +   3   +   4   +
d |--------------------------------|--------------------------------|
b |----------------1---0---------3~|----------------1---0---------0-|
G |----0h2-----0---------------0---|----0-------0---------------2---|
D |----0-------0-------0-------0---|----0-------0-------0-------0---|
G |0-------0-------0-------0-------|0-------0-------0-------0-------|
C |--------------------------------|--------------------------------|

This second half is almost the same just the base note changes from G to C.
   1   +   2   +   3   +   4   +    1   +   2   +   3   +   4   +
d |--------------------------------|--------------------------------|
b |----------------1---0---------3~|----------------1---0---------0-|
G |----0h2-----0---------------0---|----0-------0---------------2---|
D |----0-------0-------0-------0---|----0-------0-------0-------0---|
G |--------------------------------|--------------------------------|
C |0-------0-------0-------0-------|0-------0-------0-------0-------|

Igorota chords – Jun Utleg

 Title: Igorota
By: Jun Utleg
: ALLAN KARL L. BASCO
date: 03/04/2014


CAPO 2ND FRET

GUITAR INTRO *Walang akong flute pero heto flute : D C E G E 

1e------------0-//--------------//----------0---//--------------//----------0---//---------------|
2B--------3-----//--------1-3---//--------3-----//-------0-3----//--------3-----//--------1------|
3G------0-------//------0-------//------2-------//-----0--------//------0-------//------0--------|
4D----2---------//----0---------//----3---------//---0----------//----2---------//----2----------|
5A--3-------3---//--------------//--3-----------//--------------//--3-----------//--3------------|
6E--------------//--3-----------//--------------//--3-----------//--------------//---------------|

VERSE 1:

      C G 
On a soft green playground by the river bend
          F G C 
She was sitting there to meet the morning sun
 F G C 
She was playing a flute when the songbirds broke out


      C G 
As they listened to her wonderful melody
     F G C 
And I was filled with every note shes playing
 F G C 
Then I Slowly sat     by her side

Refrain:

 F C 
Igorota, girl of my dreams
 G C 
Youre the most precious gift that I ever had
 F C 
Igorota, queen of my heart
 G 
Ill keep on loving you
 G C 
Throughout my life

SAME AS INTRO

VERSE 2:
 C G 
You are my day, my morning sun
 F G C 
Youll forever be my only one
 F G C 
She puts the flute then sweetly she smiles
 C G               
And she asks me, Why are you staring at me?
 F G C 
I held her close and a songbird sang
 F G C 
I whispered to her,     I love you.

REFRAIN

OUTRO

Ganito ko play. pakirevise nlng kng gusto nyo revise.

Bad Diary Days chords – Pedro The Lion

 Bad Diary Days CHORDS
by Pedro the Lion

Standard Tuning

Kind of an acoustic take on this track, obviously sounds plenty different from the
actual song.

I've tabbed it out to mimic the same melody as in the the actual song, the strumming
will have to be a bit different and seeing as I don't know the names of all the variations
of chords i'll just give the main chord and give you the formation as how I play it with 
the song, you can obviously mess around with what i've given- hope this is concise as
possible and sorry for not knowing the names of chords haha if it's confusing feel free 
to message me and I can show you how i play it.

CAPO on the SECOND FRET

Intro:
 Am G F C C F G 

So for the above:
C chords I play a normal C then at the end of it I mute the "e" string and play the
third fret on the "b" string
F chord I play the "e" string open, then the first fret "e" string
You can play this with the verse as well, but below, the F* I play like so: open "e"
string, then mute the "e" string and play the 3rd fret "b", then the 1st fret "b" while
still muting the "e"

 C C 
we barely ever fight
                  F G 
she knows that i love her
 C C 
at first we made it every night
                    F *
but i don't want to bug her about it
 Dm Am 
she just has a funny way
    G 
of loving me

 C C F G C C 
pair of ticket stubs in the desk
              F G 
a movie i've never seen
 C C 
i probably shouldn't ask
              F *
it sounds so accusing
 Dm Am 
she must have forgot to mention
 G 
girl's night out

 C C/B Am G 

So for the above:
C chord- I mute the "e" string and play 1st fret "b", then 3rd fret "b", then play a
regular C chord
C/B chord- I mute the "e" string and play third fret "b", then 1st fret "b" then open
"b" string
Am- I play normal
G- I mute the "e" string and play the "b" string open


 C C F G C C 
the breakfast cereal talked
             F G 
more than we did all day long
   C C 
i asked her for a walk
                  F G 
but she had to be on her way
 Dm Am 
so i told her that i knew
            G 
she'd been stepping out


 C C/B Am G 
she swore that she could explain
     C C/B Am G 
she swore that it would not happen again
 C C/B Am G 
she swore that she could explain
 C C/B Am 
we both knew her words were in vain

So it keeps on going as: C   C/B    Am    G
How I play it with the chords is as so:
C chord- 3rd fret "e" to 1st fret "e" to normal C chord
C/B chord- mute "e" string and play 3rd fret "b", then normal C/B chord still muting the
"e" string, then playing the "b" string open still muting the "e" string
Am chord is normal
G chord is normal.

FIN

Liv And Maddie – Better In Stereo chords – Misc Soundtrack V2

 Hi!! 
First:  so if something isn't good, please comment
Second: I'm not pretty sure about the bridge...



Intro:  C 

Better in stereo, b-better in stereo 

Verse:

 C 
  I'm up with the the sunshine (let's go!) 
 C 
I lace up my high-tops (oh, no!) 
 Am           
Slam dunk, ready or not
 F 
Yeah, show me what you got 

 C 
I'm under the spotlight (spotlight) 
 C 
I dare you, come on and follow 
 Am 
You dance to your own beat 
 F 
I'll sing the melody! 

Pre-Chorus:
     F C 
When you say "Yeah", I say "No". 
     Dm C 
When you say "Stop", all I wanna do is go, go, go! 

Chorus:
 C F 
 You-the other half of me 
                     Am 
The half I'll never be 
                         G 
The half that drives me crazy! 
 C F 
 You-the better half of me 
                      Am 
The half I'll always need! 
          G 
We both know 

We're better in stereo! 

 C 
B-better in stereo oh, oh, oh (x2)

Verse:
 C 
And when we're together, 
 C 
A sweet harmony or solo, 
 Am 
If we could just agree, 
 F 
We would go major league

Pre-Chorus:
     F C 
When you say "Yeah", I say "No". 
     Dm C G 
When you say "Stop", all I wanna do is go, go, go!  

Chorus:
 C F 
 You-the other half of me 
                     Am 
The half I'll never be 
                         G 
The half that drives me crazy! 
 C F 
 You-the better half of me 
                      Am 
The half I'll always need! 
          G 
We both know 

We're better in stereo!

Bridge:
 C F                     
 You say  "It's wrong", I say  "It's right". 
 C F                     
 You say  "It's black", I say  "It's white". 
 C F 
You take left, and I take right 
            Am G 
But at the end of the day we both know 

We're better... 

Chorus:
 C F 
 You-the other half of me 
                     Am 
The half I'll never be 
                         G 
The half that drives me crazy! 
 C F 
 You-the better half of me 
                      Am 
The half I'll always need! 
          G 
We both know 

We're better in stereo! 

Outro:  C F Am G 

Better in stereo (x5)

*end on C*

Liar Liar Tabs by Cris Cab

 Cris Cab (feat. Pharrell) - Liar Liar
Hey, this is my first try to write a melody, I hope you like it!
You can watch it here:

My channel:
http://www.youtube.com/user/DreamToYourMusic


VERSE
E|---------------------------------------------------------------------------|
H|--5-8-5---------5-8-5------------------------------------------------------|
G|--------5-5-5-8-------5-5-5-8------7-5----------7-5------------------------|
D|-------------------------------5-8-----5-7---5-8-----5-7-------------------|
A|---------------------------------------------------------------------------|
E|---------------------------------------------------------------------------|
 -> repeat

CHORUS
E|---------------------------------------------------------------------------|
H|--5-8-5(hold)---5-8-5(hold)------8-8-6--6-6-8----------8-8-6--6-6-8--------|
G|---------5-5-----------5-5-----5----------------5-8--5--------------5-8----|
D|---------------------------------------------------------------------------|
A|---------------------------------------------------------------------------|
E|---------------------------------------------------------------------------|

VERSE (2x)
CHORUS

BRIDGE
E|----------------play|------------------------------------------------------|
H|----------------this|------------------------------------------------------|
G|--5--5----------part|--7-5-5------------7-5-5------------------------------|
D|---7--7--5-8\7--3x! |--------8-8-7-7--7-------5-7/8\7/8-7------------------|
A|--------------------|------------------------------------------------------|
E|--------------------|------------------------------------------------------|

Bye guys!

Melody Motel chords – Squeeze

 A 

He drove up to the motel in his town & country car

    E E7 A 

He watched the working women with the field hands from the farm

    A A7 D C#m Bm 

He walked into the lobby with his pleased to see you smile

  Bm E A 

Scribbled on to the register his fictitious name & smiled



The footsteps of the young girl came tapping along the hall

The outline of his features were shadowed on the wall

She stood a little nervous half lit by the neon light

That flashed in many colours through the darkness of the night



 E E7 F#m 

The skin on his face like a well worn saddle

 D A E 

Smiled as he said goodnight

         D A Bm F#m 

At the Melody Motel it was business as usual

         Bm E A 

As the girls wiped the tears from their eyes.



His shirt lay by the bedside, his jeans down by his feet.

She swallowed hard & mumbled with the key between her teeth

On went the television, the picture flickering slow

Top Cat in the alleyway, as they sat there all alone.



He drove back up his driveway in his town & country car

His wife was cooking chicken with a baby in her arms

The smell of home cooked dinner filled the air at home that night

Screaming Officer Dibble, in the TV's flickering light



Instumental



 Bb F F7 Bb Bb Eb Dm Cm Cm F Bb Bb F 

Slumped in his favourite armchair, his face grey as stone

 F F7 Bb 

His feet upon the table, next to the chicken bones

 Bb Bb7 Eb Dm Cm 

He seemed to show no feelings picking corn out from his teeth

 Cm F Bb 

The police down at the motel as the blood dried on the sheets.



      F F7 Gm 

The skin on his face like a well worn saddle

 Eb Bb F 

Smiled as he said goodnight

         Eb Bb Cm Gm 

At the Melody Motel it was business as usual

         Cm F Gb Ab Bb 

As the girls wiped the tears from their eyes.

         Eb Bb Cm Gm 

At the Melody Motel it was business as usual

         Cm 

As the girls wiped the tears

                              F Gb Ab Bb 

As the girls wiped the tears from their eyes.

Bad For Me Chords – Megan And Liz V8

 artist:megan and liz
song:bad for me
no capo
strumming pattern:DDDDU



 Cadd9 G 
I wore red cause you like that

 Em7 D/F# 
Youre like hey, let me get that

 Cadd9 G 
But when I text you don’t text back

         Em7 D/F# 
No you didnt cause you didnt care

   Cadd9 G 
Well the game makes me crazy

 Em7 D/F# 
Its like yes no maybe

     Cadd9 G 
And youre calling me baby

   Em7 D/F# 
When I know that you just dont care

 Cadd9 G 
Whoa oa

 Em7 D/F# 
Sayin that Ill quit but thats just not true

 Cadd9 G 
Like wwhoa whoa

 Em7 D/F# 
I say I dont like it but you know I do

 Cadd9 G 
Cause you make me feel so right

 Em7 D/F# 
Even if it’s so wrong

 Cadd9 G 
I wanna scream out loud

                    Em7 D/F# 
Boy but I just bite my tongue

                    Cadd9 G 
This ones for the girls messin with boys

               Em7 D/F# 
Like hes the melody and shes background noise

         Cadd9 G 
Baby why cant you see

 Em7 D/F# Cadd9 
It feels so good but youre so bad for me

 G Em7 
Ohh ohh

 D/F# Cadd9 
It feels so good but youre so bad for me

 G Em7 
Ohh ohh

 D/F# Cadd9 
It feels so good but youre so bad for me

 G Em7 
I always want what I cant have

 D/F# Cadd9 
Give it all never get half

 G Em7 
Youre like girl where you been at

 D/F# Cadd9 
And I really wanna just not care

 G 
But

 Em7 D/F# 
Whoa whoa

 Cadd9 G Em7 
Sayin that Ill quit but thats just not true

 D/F# Cadd9 
Like wwhoa whoa

 G Em7 D/F# 
I say I dont like it but you know I do

 Cadd9 G 
Cause you make me feel so right

 Em7 D/F# 
Even if its so wrong

 Cadd9 G 
I wanna scream out loud

 Em7 D/F# 
Boy but I just bite my tongue

 Cadd9 G 
This ones for the girls messin with boys

 Em7 D/F# 
Like hes the melody and shes background noise

 Cadd9 G 
Baby why cant you see

 Em7 D/F# 
It feels so good but youre so bad for me

 Cadd9 G 
Ohh ohh

 Em7 D/F# 
It feels so good but youre so bad for me

 Cadd9 G 
Ohh ohh

 Em7 D/F# Cadd9 
It feels so good but youre so bad for me

 Em7 D/F# 
Im dying tonight

            Cadd9 
Trying to hide hide

         D/F# 
What Im feeling Im feeling like

 Em7 D/F# 
Im dying tonight

              Cadd9 
Ill keep it inside

           D/F# Cadd9 G Em7 D/F#           
When I say hello should be saying goodbye


 Cadd9 G 
You make me feel so right

 Em7 D/F# 
Even if its so wrong

 Cadd9 G 
I wanna scream out loud

          E

Over My Shoulder Chords – Mike And The Mechanics V3

 Over my shoulder – Mike & the Mechanics

Intro: ! Fm7      ! Bb Eb   ! x2

            Fm7 Bb Eb 
1. Looking back over my shoulder
    Fm7 Bb Eb 
   I can see that look in your eyes
    Fm7 Bb Eb 
   I never dreamed it could be over
    Fm7 Bb Eb 
   I never wanted to say goodbye

            Fm7 Bb Eb 
2. Looking back over my shoulder
    Fm7 Bb Eb 
   With an aching deep in my heart
    Fm7 Bb Eb 
   I wish we were starting over
    Fm7 Bb Eb 
   Oh instead we're drifting so far apart

    Db Ab/C Gb Ab 
B: Everybody     told me you were leaving
    Db Ab/C Gb Ab 
   Funny I should be the last to know
    Db Ab/C Gb Ab 
   Baby, please, tell me that I'm dreaming
    Bbm B 
   I just never want to let you go

            Fm7 Bb Eb 
3. Looking back over my shoulder
    Fm7 Bb Eb 
   I can see that look in your eyes
    Fm7 Bb Eb 
   Turning my heart over and over
    Fm7 Bb Eb 
   I never wanted to say good bye

    Db Ab/C Gb Ab 
B: I don't mind    everybody laughing
    Db Ab/C Gb Ab 
   But it's enough to make a grown man cry
    Db Ab/C Gb Ab 
   'cause I can feel you're slipping through my fingers
    Bbm B 
   I don't even know the reason why


4. Whistle the melody

    Db Ab/C Gb Ab 
B. Everyday     it's a losing battle
    Db Ab/C Gb Ab 
   Just to smile and hold my head up high
    Db Ab/C Gb Ab 
   Could it be     we belong together
    Db B Db Ebm Db/F Ebm/Gb 
   Baby, won't you give me one more try?
             Ab 
   One more try

            Fm7 Bb Eb 
5. Looking back over my shoulder
    Fm7 Bb Eb 
   I can see that look in your eyes
    Fm7 Bb Eb 
   I never dreamed it could be over
    Fm7 Bb Eb 
   I never wanted to say goodbye

Hot To Death Tabs by Scout Niblett

 -------------------------------------------------------------------------------
                             Hot to Death by Scout Niblett
-------------------------------------------------------------------------------

Tabbed by: Scott H.

From 2005's "Kidnapped by Neptune". This is not necessarily a difficult song to play, 
but you definitely need to listen to it to get the melody before attempting it because it 
is quite brisk.

Tuning: EADGBE


Verse Riff:

e|----------------------------------------------|
B|----------------------------------------------|
G|-8-7-12-11-12-7-8--------7b-7b-7b-7b----------|
D|-8-7-12-11-12-7-8-8-10-8-8b-8b-8b-8b----------|
A|-6-5-10-9--10-5-6-8-10-8-8b-8b-8b-8b----------|
E|------------------6-8--6-6--6--6--6-----------|

    Sittin' on the banks of a glassy river
    Mercury flew down to tell me a story
    As he began, it sounded familiar

    It starts with the sound of a lonely girl
    Rockin', rockin' in, rockin' her own world
    Shakin', shakin' it, shakin' her heart down

    Sealed in the stars the day she was born
    Pluto held the sun and she wears the crown
    DJ death prince of now is her name
    Hot to death, it gets hot to death


Ending Riff (heavily distorted)

e|------------------------------------------------|
B|------------------------------------------------|
G|-8-7-12-11-12-7-8-------------------------------|
D|-8-7-12-11-12-7-8-8-10-4-5-5-5-5-5-5-5-5-5------|
A|-6-5-10-9--10-5-6-8-10-4-5-5-5-5-5-5-5-5-5------|
E|------------------6-8--2-3-3-3-3-3-3-3-3-3------|

    "Whoa, whoa, whoa"

Quand Vas Tu Rentrer Tabs by Melodys Echo Chamber

                    Melody's Echo Chamber - Quand Vas Tu Rentrer?
                          from her 2012 self-titled album

Just an important thing to note - this song is in 5/4 time. It can be tricky if
you're not used to unusual time signatures, so try to get the 5/4 feel down first.

Intro:
Keyboard:
e|------|
B|-11---|
G|------| x3
D|------|
A|------|
E|------|


And then this:
Keyboard:
e|----10------|
B|-11---------|
G|-------12---| x4
D|------------|
A|------------|
E|------------|


Pre-verse:
Keyboard:
e|----10.-----10-----10-|
B|----11.-----11-----11-|
G|----12.-----12-----12-| x4
D|-13------13-----12----|
A|----------------------|
E|----------------------|

e|----15.-----15-----15-|
B|----15.-----15-----15-|
G|----15.-----15-----15-| x4
D|-13------13-----12----|
A|----------------------|
E|----------------------|

e|----8.-----8-----8-|
B|----8.-----8-----8-|
G|----8.-----8-----8-| x2
D|-10-----10----10---|
A|-------------------|
E|-------------------|

e|----10.-----10-----10-|
B|----11.-----11-----11-|
G|----12.-----12-----12-| x4
D|-13------13-----12----|
A|----------------------|
E|----------------------|

Playing it on guitar is a bit tricky like that,
so here's an easier way to play it on guitar. Just memorise
the different positions, because I'll just tab the
keyboard out for the rest of the tab:
Guitar:
e|----------------|
B|---8.----8----8-|
G|---7.----7----7-| x4
D|---8.----8----8-|
A|-6-----6----5---|
E|----------------|

e|----10.-----10-----10-|
B|----11.-----11-----11-|
G|----12.-----12-----12-| x4
D|----------------------|
A|----------------------|
E|-11------11-----10----|

e|----------------|
B|---4.----4----4-|
G|---5.----5----5-| x2
D|---5.----5----5-|
A|-3-----3----3---|
E|----------------|

e|----------------|
B|---8.----8----8-|
G|---7.----7----7-| x4
D|---8.----8----8-|
A|-6-----6----5---|
E|----------------|


Verse:
"Est ce que je vois"
Keyboard:
e|----15.-----15-----15-|
B|----15.-----15-----15-|
G|----15.-----15-----15-| x4
D|-13------13-----12----|
A|----------------------|
E|----------------------|

"De ma chambre"
e|----8.-----8-----8-|
B|----8.-----8-----8-|
G|----8.-----8-----8-| x2
D|-10-----10----10---|
A|-------------------|
E|-------------------|

"Lasse"
e|----10.-----10-----10-|
B|----11.-----11-----11-|
G|----12.-----12-----12-| x4
D|-13------13-----12----|
A|----------------------|
E|----------------------|

"Si tu t'endors"
e|----15.-----15-----15-|
B|----15.-----15-----15-|
G|----15.-----15-----15-| x4
D|-13------13-----12----|
A|----------------------|
E|----------------------|

"Fais vriller"
e|----8.-----8-----8-|
B|----8.-----8-----8-|
G|----8.-----8-----8-|
D|-10-----10----10---|
A|-------------------|
E|-------------------|

"Briser"
e|----8.-----8----8-|
B|----8.-----8----8-|
G|----8.-----8----8-| x2
D|-10-----10----8---|
A|------------------|
E|------------------|

e|----8.-----8-----8-|
B|----8.-----8-----8-|
G|----8.-----8-----8-|
D|-10-----10----10---|
A|-------------------|
E|-------------------|

"T'effaces"
e|----10.-----10-----10-|
B|----11.-----11-----11-|
G|----12.-----12-----12-| x4
D|-13------13-----12----|
A|----------------------|
E|----------------------|


Chorus:
"Quand vas tu rentrer?"
Keyboard:
e|----10.-----10-----10-|
B|----11.-----11-----11-|
G|----12.-----12-----12-| x8
D|-13------13-----12----|
A|----------------------|
E|----------------------|

"J'ai froid"
e|----8.-----8-----8-|
B|----8.-----8-----8-|
G|----8.-----8-----8-| x2
D|-10-----10----10---|
A|-------------------|
E|-------------------|

e|----10.-----10-----10-|
B|----11.-----11-----11-|
G|----12.-----12-----12-| x4
D|-13------13-----12----|
A|----------------------|
E|----------------------|


The rest of the band comes in:
Verse:
"Est ce que j'entends"
e|----15.-----15-----15-|
B|----15.---

Some Time Alone Alone Tabs by Melodys Echo Chamber

                    Melody's Echo Chamber - Some Time Alone, Alone
                          from her 2012 self-titled album

This song was actually recorded a quarter step higher, but it's quite hard to tune up a
quarter step because it's halfway between two different notes, so I've just tabbed it out in
standard. It will sound good playing on your own (in fact you pretty much won't be able to
tell any difference at all), but you probably won't be able to play along with the recording
accuarately unless you tune up a quarter step.

Intro:
Guitar:
e|-2--2--2--2--2--2--2---9--9--9--8---8---8---8---8---8---8---8--|
B|-2--2--2--2--2--2--2--11-11-11--9---9---9---9---9---9---9---9--|
G|-3--3--3--3--3--3--3--11-11-11-10--10--10--10--10--10--10--10--|
D|-4--4--4--4--4--4--4--11-11-11-10--10--10--10--10--10--10--10--|
A|-4--4--4--4--4--4--4---9--9--9--8---8---8---8---8---8---8---8--|
E|-2--2--2--2--2--2--2-------------------------------------------|


Then the rest of the band comes in:
Guitar:
e|-2--2--2--2--2--2--2---9--9--9--8---8---8---8---8---8---8---8--|
B|-2--2--2--2--2--2--2--11-11-11--9---9---9---9---9---9---9---9--|
G|-3--3--3--3--3--3--3--11-11-11-10--10--10--10--10--10--10--10--| x2
D|-4--4--4--4--4--4--4--11-11-11-10--10--10--10--10--10--10--10--|
A|-4--4--4--4--4--4--4---9--9--9--8---8---8---8---8---8---8---8--|
E|-2--2--2--2--2--2--2-------------------------------------------|

Synth:
e|-11----------------13------------11----------------13----------|
B|----14-13-11-----------13----14-----14-13-11-----------13------|
G|-------------13------------------------------13----------------| x2
D|---------------------------------------------------------------|
A|---------------------------------------------------------------|
E|---------------------------------------------------------------|


Pre-verse:
Guitar:
e|-6--6--6--6--3--3--3--3--|
B|-8--8--8--8--4--4--4--4--|
G|-8--8--8--8--5--5--5--5--| x3
D|-8--8--8--8--5--5--5--5--|
A|-6--6--6--6--3--3--3--3--|
E|-------------------------|

e|-6--6--6--6--6--6--6--6--|
B|-6--6--6--6--6--6--6--6--|
G|-7--7--7--7--7--7--7--7--|
D|-8--8--8--8--8--8--8--8--|
A|-8--8--8--8--8--8--8--8--|
E|-6--6--6--6--6--6--6--6--|

Synth:
e|-------------------------------------------------|
B|-------11----13----11----------11----13----11----|
G|----12----12----12----12----12----12----12----12-| x3
D|-13----------------------10----------------------|
A|-------------------------------------------------|
E|-------------------------------------------------|

e|------------8---------------------8----------|
B|------11---------11---------11---------11----|
G|---10----10---10----10---10----10---10----10-|
D|---------------------------------------------|
A|-8---------------------8---------------------|
E|---------------------------------------------|


Verse:
"We resign the light to someone, and hand it to the righteous, 
We will walk until the right emotion,
Some time alone, alone to wonder, change your mind up,
Waiting around, but everyone else is moving on..."
Guitar:
e|-2--2--2--2--2--2--2--2--2--2--2--2--2--2--2--2---8---8---8---8---8---8---8---8--|
B|-2--2--2--2--2--2--2--2--2--2--2--2--2--2--2--2---9---9---9---9---9---9---9---9--|
G|-3--3--3--3--3--3--3--3--3--3--3--3--3--3--3--3--10--10--10--10--10--10--10--10--| \
D|-4--4--4--4--4--4--4--4--4--4--4--4--4--4--4--4--10--10--10--10--10--10--10--10--|  \
A|-4--4--4--4--4--4--4--4--4--4--4--4--4--4--4--4---8---8---8---8---8---8---8---8--|   \
E|-2--2--2--2--2--2--2--2--2--2--2--2--2--2--2--2----------------------------------|    |
                                                                                        | x2
e|-6--6--6--6--6--6--6--6--4--4--4--4--4--4--4--4--|                                    |
B|-8--8--8--8--8--8--8--8--5--5--5--5--5--5--5--5--|                                   /
G|-8--8--8--8--8--8--8--8--6--6--6--6--6--6--6--6--|                   

Without Jesus Chords – Shane And Shane

 Capo 4
* = palm muted


[Verse 1]
        G 
Just three chords and a melody
         C 
Won't leave you a living legacy
         G C   
Without   Jesus.....Oh
       G 
Just four songs and a parable
         C 
Might leave you something terrible
       G 
Just five bucks in an offering
        C 
Won't buy you some prosperity
         Em 
Just a sixth sense of morality
        G *
Won't get you out of your depravity
           G C 
Without Jesus, oh, without Jesus

[Instrumental]
 G C G D  (x2)

[Verse 2]
              G 
You could memorize become a Mennonite
             C 
You could speak in tongues and raise the dead to life
             G 
You could build a big church call it ministry
            C 
Teach 'em all they need to know to run a family
            Em 
You could sell it all be burned at the stake
      G *
But what in the world have you to ever gain
           G C 
Without Jesus, oh, without Jesus

[Instrumental]
 G C G D  (x2)

[Verse 3]
 Am 
   If all I ever get out of laying my life down
                               C 
Is thorns in the shape of a crown
                              D 
On the brow of a man from Nazareth
 Am 
   And if all I get is what Jesus did,
                               C 
And said, and put within my heart
                C 
Then I get it all
     D   (build)      
I have it all
 G C G D G C G D 
Oh,    I have it all
                 G C G D 
Everything is mine
                G C G D 
Oh, I have it all
            G C G D 
I have it all

        G 
Just three chords and a melody
         C 
Won't leave you a living legacy
            G 
Without Jesus

Nightingale Chords – Demi Lovato V4

 Nightingale- Demi Lovato
No Capo
Standard Tuning

This isn’t perfect because it’s my first one and done by ear, but it sounds much 
better than the other tabs up right now.



Verse 1
         A E 
I can't sleep tonight, wide awake and so confused
         F#m D 
Everything's in line, but I am bruised
         A E 
I need a voice to echo, I need a light to take me home
         F#m D 
I kinda need a hero, is it you?


Refrain
                 F#m A 
I never see the forest for the trees, I could really use your melody
            D E 
Baby I'm a little blind, I think it's time for you to find me


Chorus
 D E F#m E D E F#m E 
Can you be my Nightingale, sing to me I know you're there.
 D E F#m A 
You could be my sanity, bring me peace, sing me to sleep.
 D E F#m E 
Say you'll be my Nightingale


Verse 2
          A E 
Somebody speak to me, cause I’m feeling like hell
             F#m D 
Need you to answer me, I'm overwhelmed
          A E 
I need a voice to echo, I need a light to take me home
          F#m D 
I need a star to follow, I don’t know


Refrain
                 F#m A 
I never see the forest for the trees, I could really use your melody
            D E 
Baby I'm a little blind, I think it's time for you to find me


Chorus
 D E F#m E D E F#m E 
Can you be my Nightingale, sing to me I know you're there.
 D E F#m A 
You could be my sanity, bring me peace, sing me to sleep.
 D E F#m E 
Say you'll be my Nightingale


Bridge
                       D E F#m 
I don't know what I'd do without you
                       D E A 
Your words are like a whisper, come through
                   D E F#m E 
As long as you're with me here tonight, I'm good


Chorus
 D E F#m E D E F#m E           
Can you be my Nightingale, feel so close I know you're there
  
 D E F#m D D E F#m E 
Ohhhhhhh Nightingale, sing to me, I know you're there.
       D E F#m E 
Cause baby you're my sanity, you bring me peace, sing me to sleep
 D E F#m E 
Say you'll be my Nightingale

 A E F#m D 
Ohhh,   mhmmm, mhhmmmm