Tag: mind

Gentle On My Mind chords – John Hartford Vsion 2

 In the verses, there's a pedal G.
Intro and 4 verses.


[INTRO]
 C  | | | |


[VERSE 1]
      C Cmaj7 C6 
It's knowing that your door is always open
          C Dm 
And your path is free to walk
      Dm Dmmaj7 Dm7 
That makes me tend to leave my sleeping bag
               G C 
Rolled up and stashed behind your couch
          C Cmaj7 
And it's knowing I'm not shackled
      C6 C 
By forgotten words and bonds
         C C Dm 
And the ink stains that are dried upon some line
      Dm Dmmaj7 
That keeps you on the back  roads
        Dm7 G 
By the rivers of my memory
      Dm G C 
That keeps you ever gentle on my mind


[VERSE 2]
          C Cmaj7 
It's not clinging to the rocks     and ivy
 C6 C Dm 
Planted on their columns now that binds me
    Dm Dmmaj7 
Or something that somebo  -  dy said
   Dm7 G C 
Because they thought we fit together walking
           C Cmaj7 C6 C 
It's just knowing that the world will not be cursing or forgiving
        C Dm7 
when I walk along some railroad track and find
             Dm Dmmaj7 
That you're moving on the back      roads
        Dm7 G 
By the rivers of my memory
         Dm G C 
And for hours you're just gentle on my mind


[VERSE 3]
            C Cmaj7 
Though the wheat fields and the clothes lines
         C6 C Dm7 
And the junkyards and the highways come between us
          Dm Dmmaj7 Dm7 
And some other woman's cryin' to her mother
            G C 
'Cause she turned and I was   gone
   C Cmaj7 C6 C 
I still might run in silence, tears of joy might stain my face
         C Dm7 
And the summer sun might burn me 'til I'm blind
         Dm Dmmaj7 Dm7 G 
Oh, but not to where I cannot see you walkin' on the back roads
        Dm G C 
By the rivers flowing gentle on my mind


[VERSE 4]
   C Cmaj7 C6 
I dip my cup of soup back from a gurglin',
           C Dm 
Cracklin' cauldron in some train yard
    Dm Dmmaj7 
My beard a rustling, a cold  towel,
       Dm7 G C 
and a dirty hat pulled low across my face
         C Cmaj7 
Through cupped hands 'round the tin  can
      C6 C Dm7 
I pretend to hold you to my breast and find
             Dm Dmmaj7 
That you're waiting from the back roads
        Dm7 G7 
By the rivers of my memories
      Dm G C    |  Csus4  |  C  |  C7sus4  |  C  |
Ever smilin', ever gentle on my mind

Mind Over Matter Tabs – PVRIS

 PVRIS - Mind over Matter Acoustic - (Simplified Version)

Intro

e|-4---0--9-7---0----4---0--2-0---0-|
B|---2--------0--------2--------0---|
G|----------------------------------|
D|----------------------------------|
A|-4-----------------4--------------|
E|----------0-----------------0-----|

Verse 1


e|-0---0----0---0----0---0----0---0-|
B|---2--------0--------2--------0---|
G|----------------------------------|
D|----------------------------------|
A|-4-----------------4--------------|
E|----------0-----------------0-----|

Pre-chorus

e|------------------------------------0---------------0-------|
B|-5---9---4----10----5---9---4-----2---2---9---4---2---2---4-|
G|------------------------------------------------------------|
D|------------------------------------------------------------|
A|-4---7---2----9-----4---7---2-----0-------7---2---0-------2-|
E|------------------------------------------------------------|

Chorus

e|-------------------------------|
B|-5---7---9---4---2---4---5---4-|
G|-------------------------------|
D|-------------------------------|
A|-4---0-------2---0---2---4---2-|
E|---------0---------------------|

Verse 2

e|----------------------------------------------------------|
B|-14---9---16---12---2---5---4---2---4---2---5---4---2---4-|
G|----------------------------------------------------------|
D|----------------------------------------------------------|
A|-12---7---14---9----0---4---2---0---2---0---4---2---0---2-|
E|----------------------------------------------------------|

Chorus

e|-------------------------------|
B|-5---7---9---4---2---4---5---4-|
G|-------------------------------|
D|-------------------------------|
A|-4---0-------2---0---2---4---2-|
E|---------0---------------------|

Bridge

e|----------------------------------------|
B|-10---5---9---4---10---5---12---14---16-|
G|----------------------------------------|
D|----------------------------------------|
A|-9----4---7---2---9----4---11---12---14-|
E|----------------------------------------|

Chorus X2

e|-------------------------------|
B|-5---7---9---4---2---4---5---4-|
G|-------------------------------|
D|-------------------------------|
A|-4---0-------2---0---2---4---2-|
E|---------0---------------------|

Losin My Mind Tabs – Peer Günt V2

 Verse:

distortion guitar
E-----------------|----------|----------|--------|
B-----------------|----------|----------|--------|
G-----------------|----------|----------|--------|
D-----------------|----------|-----7----|--------|
A-0--2--3-----2---|-----5----|-----5----|--------|
E----------3--0---|-0-0-3----|-0-0------|--------|


acoustic guitar
E-0------0---0--0---|-3------3---3--3---|-2------2---2--2---|-3--2--2--0---0--3--2---|
B-0------0---0--0---|-0------0---0--0---|-3------3---3--3---|-3--3--3--3---3--3--3---|
G-4------4---4--4---|-0------0---0--0---|-2------2---2--2---|-2--2--2--2---2--2--2---|
D-2------2---2--2---|-0------0---0--0---|-0------0---0--0---|-0--0--0--0---0--0--0---|
A-2------2---2--2---|-2------2---2--2---|-0------0---0--0---|-0--0--0--0---0--0--0---|
E-0------0---0--0---|-3------3---3--3---|-------------------|------------------------|




Chorus:

distortion guitar
E------------------|--------------------|
B------------------|--------------------|
G------------------|--------------------|
D-----5-------7----|-----5------7-------|
A-7---3---5---5----|-7---3----5-5-------|
E-5-------3--------|-5--------3---------|

The Cautious – Mind Race Tabs

 -------------------------------------------------------------------------------
                         MIND RACE - The Cautious
-------------------------------------------------------------------------------
: Ritwik Krishnan

Intro:
 Form (4 bars guitar)

Guitar 1:

e|-----------------------------------------------------|
B|-----------------------------------------------------|
G|-----7-----6------11------------11-----7-----4-------|
D|---0-----0------0-------------0------0-----0---------|
A|-----------------------------------------------------|
E|-7-----5-----10------------10------7-----3-----------|

Verse 1:
 Form (8 bars guitar/bass/drums/vocals)

Guitar 1:

e|-----------------------------------------------------|
B|-----------------------------------------------------|
G|-----7-----6------11------------11-----7-----4-------|
D|---0-----0------0-------------0------0-----0---------|
A|-----------------------------------------------------|
E|-7-----5-----10------------10------7-----3-----------|

Bass:

G|---------------------------------------------------|
D|---------------------------------------------------|
A|---------------------------------------------------|
E|-7-----5-----10-----------10-----7-----3-----------|

Chorus:
 Form (8 bars guitar/bass/drums/vocals)

Guitar 1:

e|---------------------------------------------------|
B|---------------------------------------------------|
G|-----4-----4-----6-----6-----7------11-----4-----4-|
D|---0-----0-----0-----0-----0------0------0-----0---|
A|---------------------------------------------------|
E|-3-----3-----5-----5-----7-----10------3-----3-----|

e|-------------------------------------------------------|
B|-------------------------------------------------------|
G|-----4-----4-----6-----6-----7------11------14------14-|
D|---0-----0-----0-----0-----0------0-------0-------0----|
A|-------------------------------------------------------|
E|-3-----3-----5-----5-----7-----10------14------14------|

e|---------------------------------------------------|
B|---------------------------------------------------|
G|-----4-----4-----6-----6-----7------11-----4-----4-|
D|---0-----0-----0-----0-----0------0------0-----0---|
A|---------------------------------------------------|
E|-3-----3-----5-----5-----7-----10------3-----3-----|

e|-------------------------------------------------|
B|-------------------------------------------------|
G|-----4-----4-----6-----6-----7-----6-----4-----4-|
D|---0-----0-----0-----0-----0-----0-----0-----0---|
A|-------------------------------------------------|
E|-3-----3-----5-----5-----7-----5-----3-----3-----|

Bass:

G|--------------------------------------------------|
D|--------------------------------------------------|
A|--------------------------------------------------|
E|-3-----3-----5-----5-----7-----10-----3-----3-----|

G|--------------------------------------------------|
D|--------------------------------------------------|
A|--------------------------------------------------|
E|-3-----3-----5-----5-----7-----10-----2-----2-----|

G|--------------------------------------------------|
D|--------------------------------------------------|
A|--------------------------------------------------|
E|-3-----3-----5-----5-----7-----10-----3-----3-----|

G|-------------------------------------------------|
D|-------------------------------------------------|
A|-------------------------------------------------|
E|-3-----3-----5-----5-----7-----5-----3-----3-----|

Post Chorus:
 Form (4 bars guitar/bass/drums)

Guitar 1:

e|-------------------------------------------------|
B|-------------------------------------------------|
G|-----4-----4-----3-----3-----2-----2-----2-----2-|
D|---0-----0-----0-----0-----0-----0-----0-----0---|
A|-------------------------------------------------|
E|-3-----3-----3-----3-----2-----2-----2-----2-----|

Bass:

G|-----------------------------------------------------|
D|----------------------------

Mind Over Matter Acoustic chords – Pvris V2

 C#m7 E 
You were spoiled rotten and turned stale like all your plans,
 C#m7 E 
 My tongue's acquired tolerance for tastes I couldn't stand.
 C#m7 E B F#m 
    You've been stuck in a rut and a wasteland, 
C#m7.                 E B 
 drowned in swamps below your feet.

            A C#m7 B 
 So just trust me, you'll be just fine,
     A B 
 I need your trust just for tonight.

 C#m7 A  
This is not a place in my head,
                      E 
 Reach out your hands and tell me just what 
     B 
you feel.
 A B 
 This is not just all in your head,
               C#m 
 Mind over matter makes these things feel
      B 
 so real.


  A C#m 
 I can see the doubt in your eyes,
                  B 
 You say there's no such thing as better 
 F#m 
things in life.
 A C#m7  
 Well, I must confess this is all too new
      B 
 for me,
 A B 
 a whole new world, a whole new world to see.

            A C#m7 B 
 So just trust me, you'll be just fine,
     A B 
 I need your trust just for tonight.

 C#m7 A  
This is not a place in my head,
                      E 
 Reach out your hands and tell me just what 
     B 
you feel.
 A B 
 This is not just all in your head,
               C#m 
 Mind over matter makes these things feel
      B 
 so real.

 F#m C#m E  
 Keep an open mind, it brings open hearts
       B  
 and open eyes.
 F#m C#m  
 You walk around with your hands out, and
        E A B 
 I've never seen anyone so blind.

    

 C#m7 A  
This is not a place in my head,
                      E 
 Reach out your hands and tell me just what 
     B 
you feel.
 A B 
 This is not just all in your head,
               C#m 
 Mind over matter makes these things feel
      B 
 so real.


 C#m7 A  
This is not a place in my head,
                      E 
 Reach out your hands and tell me just what 
     B 
you feel.
 A B 
 This is not just all in your head,
               C#m 
 Mind over matter makes these things feel
      B 
 so real.

In The Back Of My Mind chords – Fleetwood Mac

 ---------------------------------------------------------------------------
          In the Back of My Mind – Fleetwood Mac 
---------------------------------------------------------------------------
: maguri
Tuning: Standard

Fleetwood Mac 
In the Back of My Mind (1990)
(Billy Burnette, David Malloy)

From: "Behind the Mask"

---------------------------------------------------------------------------
CHORDS

          E-A-D-G-B-e
G(5)      3-x-0-0-3-3
D/F#      2-x-0-2-3-2
C/Bb      x-1-2-0-1-0

---------------------------------------------------------------------------

INTRO 
percussion and sound collage (0:00-2:13)

starting 2:14
| no chord | % | 
 (drums only)

|  Am  |  F  |  Am  |  F  | 
|  Am  |  F  |  Am  |  F  | 


VERSE
 F Am 
  Well I try and I try
               F 
(You can't forget her)
                    Am 
I can't run, can't hide
             F 
(When you remember)
                   Am 
Nights that won't fade away
   |  G  | % |
Yea fade away


VERSE
 F Am 
  Well I still go crazy
                     F 
 (When you hear her name)
                     Am 
Feels like you just left today
                      F 
(And it drives you insane)
              Am 
But you keep holdin' on
   |  G  | % |
Yea holdin' on


CHORUS
 Am G 
 In the back of my mind
                  D/F# 
You live all the time
        F E Am 
In the back of my mind (In the back of my mind)
 Am G 
 Every night, every day
                        D/F# 
That's where you still play
        F E     |  Am  |  F  |  Am  |  F  |
In the back of my mind


VERSE
 F Am 
  When I close my eyes
                F 
(You can still touch her)
            Am 
And I fantasize
                   F 
(She's still your lover)
             Am 
When I wake up I see
          G G 
The only place you'll be, I know where you'll be


CHORUS
 Am G 
 In the back of my mind
                  D/F# 
You live all the time
        F E Am 
In the back of my mind (In the back of my mind)
 Am G 
 Every night, every day
                        D/F# 
That's where you still play
        F E     |  Am  |  F  |
In the back of my mind


MIDDLE 8
 C C/Bb 
 I remember your eyes burnin' bright
      Am G 
Like we touched the summer sun
 C C/Bb 
 I can see your shadow standin' there
        Am                       |  G F  | 
On the streets where we used to run


INTERLUDE
|  Am  | % |  Am G  |  Am  |
Ohh, remember


SOLO
|  Am  |  G  |  D/F# F E  |  Am  | 
|  Am  |  G  |  D/F# F E  |  Am  | 


CHORUS
 Am G 
 In the back of my mind
                  D/F# 
You live all the time
        F E Am 
In the back of my mind (In the back of my mind)
 Am G 
 Every night, every day
                        D/F# 
That's where you still play
        F E     |  Am  |  F</s

Frame Of Mind chords – Tristam

 (Put capo on 1 and transpose if you hate barre chords)

INTRO:  D# G# C# G# D# 
For now you can stay
Right here in my arms
 G# 
Right here we will play
Away from all harm
 C# 
Until somehow you can find
You'll be safe from all the flares
 G# 
A slightly different frame of mind
Although I know you don't care

Buildup:  B C# D#m C#  x4
(Listen for chord changes)

CHORUS:
 B C# D#m 
You can lift your head up to the sky
I wish that you could   always  stay
 D#m C# F# 
Take a deeper breath and give it time
We can wait right      here and play
 F# B C# 
You can walk the path along the lines
until somehow     you    can   find
(  D#m  )               C# B 
With your shattered frame of mind
A slightly better  frame of mind

 B C# D#m C# 

BRIDGE:
 F# 
When they say you will fall
Is that what you heard?
 C# 
You can reach nothing at all
Broken words in the dirt
 G# 
Hide your tracks beneath the line
Yelling out, into the sun
 D#m 
Of a different frame of mind
Here we come, here we come

 B C# D#m C# 

CHORUS

OUTRO:
 F# 
And when daylight comes through
When all eyes are on you
 C# 
When the day is anew
You will know what to do
 G# 
Then it will be time
Since you will have found
 D#m 
For a new frame of mind
Your new frame of mind

 B 
When you lift your head up to the sky
But always know that you'll be safe
 D#m 
Take a deeper breath and give it time
I'll be here throughout your days
 F# 
You can walk the path along the lines
Come find me and we will play

Always On My Mind chords – Billy Nicholls

 Billy Nicholls - Always On My Mind
song: https://www.youtube.com/watch?v=b6Ipnu0wQgg

INTRO
D   \ 4x
 Am   /

VERSE 1
 C G C 
 See her standing there
 G C 
Can't compare
 G C A 
Always on my mind

 C G C 
 Couldn't leave her now
 G C 
Down there now
 G C A 
Always on my mind

CHORUS
 D Am D 
 Every week's just the same
          Am D 
Makes me speak out her name
         Am 
I leave her now
 G D G 
 Like the sun in the sky
           D G 
Makes me cry, wanna cry
         D A 
I leave her to her own

INTERLUDE
 Em G C 

VERSE 2
 C G C 
 Like the food I eat
 G C 
When I sleep
       G C A 
She's always on my mind
 C G C 
 And when she's not there
 G C 
This I swear
       G C A 
She's always on my mind

CHORUS
 D Am D 
 Every week's just the same
          Am D 
Makes me speak out her name
         Am 
I leave her now
 G D G 
 Like the sun in the sky
           D G 
Makes me cry, wanna cry
         D A 
I leave her to her own

INTERLUDE
 Em G C 

OUTRO
 D Am 
 Always on my mind
 D Am 
 Always on my mind
 D Am 
 Always on my mind
 D Am 
 Always on my mind
 D Am 
        on my mind
 D Am 
        on my mind
 D Am 
        on my mind
 D Am 
        on my mind

Ive Got Something On My Mind chords – Left Banke

 The Left Banke - I've Got Something On My Mind
song: https://www.youtube.com/watch?v=hWofSTyS52g

INTRO (2x)
 A D A E 

CHORUS
          A D 
I've got something on my mind
          A E 
It's no lie, I'm telling you why
          A D 
I've got something on my mind
          A E 
It's no lie, I'm telling you why

VERSE 1
 E Bm 
Up to now I've been afraid to say that
 A E 
You're the cause of all my pain
 E Bm 
If you keep this up my friend
   A E 
I think I'll go insane

CHORUS
          A D 
I've got something on my mind
          A E 
It's no lie, I'm telling you why

VERSE 2
 E Bm 
You've been treating me so bad
           A E 
Since the day that we met
 E Bm 
But now I am oh so glad
        A E 
And my girl you can bet

CHORUS
        A D 
I will say what's on my mind
           A E 
And this time there'll be no lie
          A D 
I've got something on my mind
          A E 
It's no lie, I'm telling you why

INTERLUDE
 G A G Csus4 C Bbsus4 Bb Absus4 Ab Gbsus4 

RE-INTRO
 A D A E 

VERSE 3
 E Bm 
You've been treating me so bad
           A E 
Since the day that we met
 E Bm 
But now I am oh so glad
        A E 
And my girl you can bet

CHORUS
   A D 
I will say what's on my mind
           A E 
And this time there'll be no lie
          A D 
I've got something on my mind
          A E 
It's no lie, I'm telling you why

OUTRO
 G A G Csus4 C Bbsus4 Bb Absus4 Ab Gbsus4

Make My Mind chords – Screaming Trees

 Intro
 D  -  C  x 2

 D C 
Take a minute just to breathe
 D C G 
Take a minute 'till I'm wide awake
 D C     
I'm searching' once again
 D C G 
And the sun has left the sky


 C G  
And you're on my mind

And you're on my mind

 D  -  C  -  G D C G 
Take a second to believe
 D C G 
Just a second you won't have to wait
 D C G 
Don't you turn your back on me
 D C G 
I couldn't look into your eyes


 C G D 
And I don't know why and I don't know why
 C G 
But I'll try again on another day


 D F 
You make my mind
              C G D 
Just wanna leave this world behind
              F C G 
You make my mind, you make my mind
 D D  -  C  -  G  -  G  x2

 D C G 
Let the silence creep in
(Let the silence creep in)
 D C G 
In the silence I'm awake all night
 D C G 
Just searching once again
(Searching once again)
 D C G 
Well could I reach you in the morning light


 C G D 
If I closed my eyes, if I closed my eyes
 C G 
Well you're here right away


 D F 
You make my mind
              C G D 
Just wanna leave this world behind
             F C G 
You make my mind, you make my mind
 D C  -  G  -  D  -  D  x3

              C  
You're on my mind
               G 
I'll try again on another day

Solo (Chorus)
 D  -  F  -  C  -  G  x3


 C G D 
And I don't know why and I don't know why
 C G D 
If I close my eyes, if I close my eyes
 C G 
Well you're here right away


 D F 
You make my mind
              C G D 
Just wanna leave this world behind
             F C G D 
You make my mind Just wanna leave this world behind
             F C G 
You make my mind, you make my mind

 D F C G 
You make my mind, make my mind
 D F C G 
You make my mind, make my mind
 D F C G 
You make my mind, make my mind

Linda On My Mind chords – Conway Twitty V3

 Chorus:
           C C7 
Now I'm lying here with Linda on my mind
      F C 
And next to me might soon to be the one I left behind
                                       C7 
And lord it's killing me to see her crying
                  F Dm7 G7 
She know's I'm lying here beside here beside her
                   C 
with Linda on my mind


 C C7 
Yes I know that I once loved her and I placed no one above her
         F C 
And I never thought I'd ever set her free
      F C 
But it just wasn't in my plan, the way Linda squeezed my hand
      D7 G7 
The first time that I held her close as she danced with me


  G7 C 
She said I've loved you for a long time,
                            C7 
But you're married to a friend of mine
     F C 
And I try hard to never let it show,
          F C C7 F 
But my love for you is stronger, I can't hide it any longer
      C Dm7 G7 C 
And so I thought I'd better let you know


Repeat Chorus

Open Mind chords – Wilco

 -------------------------------------------------------------------------------
                            OPEN MIND - Wilco
-------------------------------------------------------------------------------
: jvwald

Tuning: Standard
Capo III

 F  133211
 Em  022000
 Am  x02210
 Dm/A  x03230
 C/G  332010
 G  320003
 D7  x00212
 Am7/G  302210

intro
 F Em Am Dm/A C/G C/G F C/G G 
I will throw myself underneath the wheels of any train of thought
 C/G F C/G G 
Running off the rails I'll sail you through the rogue waves of your brain
 C/G F C/G G 
If I could bring a light to shine upon the dark and disobeying
 C/G F C/G G 
Night so young but I still say we're too old for cliches

    F Em Am Am7/G D7 
Oh I can only dream of the dreams we'd share if you were so inclined
 C/G G F Am Dm/A C/G 
I would love to be the one to open up your mind

 C/G F C/G G 
I could base my whole existence upon the cherry-strands of your gold hair
 C/G F C/G G 
I would ask, almost insist upon treating you kind and fair

    F Em Am Am7/G D7 
Oh I can only dream of the dreams we'd have if our hearts would be entwined
 C/G G F Am Dm/A C/G 
If you would let me be the one to open up your mind

 F Em Am Dm/A C/G C/G F C/G G 
I'd still be myself beneath the banks all broken beside the stream
 C/G F C/G G 
ready to return your thoughts unlearned so it goes, so it seems

    F Em Am Am7/G D7 
Oh I can only dream of the dreams we'd share if you weren't so defined
 C/G G F Am Dm/A C/G 
I would love to be the one to open up your mind
 F Em Am Dm/A C/G 
If you would let me be the one to open up your mind 

 F Em Am Dm/A C/G 


************************************

| /   slide up
| \   slide down
| h   hammer-on
| p   pull-off
| ~   vibrato
| +   harmonic
| x   Mute note
| b   Bend
| pb  Pre-bend
| br  Bend release
| pbr Pre-bend release
| brb Bend release bend

************************************

Money On My Mind chords – Sam Smith V4

 Intro:  D  -  A  -  G Bm 
  When I signed my deal
 D 
I felt pressure
                     G 
Don't wanna see the numbers

I wanna see heaven
          G A 
You say, could you write a song for me?
         G 
I say, I'm sorry I won't do that happily
              A 
When I go home
                     D 
I tend to close the door
                G D 
I never wanted more
               D 
So sing with me

Can't you see
I don't have

 Bm 
Money on my mind
 A 
Money on my mind
 G 
I do it for
I do it for the love
 Bm - A - G 
[x2]

                      D 
Please don't get me wrong
                 A 
I wanna keep it moving
                  G 
I know what that requires
                
I'm not foolish
 G Gm A 
Please, can you make this work for me?
                 G 
Cause I'm not a puppet, I will work against your strings
 
            G 
When I go home
                     D 
I tend to close the door
                G 
I never wanted more
 A  
 So sing with me
Can't you see


 Bm 
Money on my mind
 A 
Money on my mind
 G 
I do it for
I do it for the love
 Bm - A - G 
[x2]

 D 
When the sun will set

 A 
Don't you fret

 Em C 
No I have no money on my mind

 D 
No money on my mind
 A 
No money on my mind
 G 
No I have no money on my mind
[x2]
Just love

 Bm - A G - Bm - A - G Bm 
Money on my mind

 A 
Money on my mind

 G 
I do it for
I do it for the love

I don't have

 G 
Money on my mind

 A 
Money on my mind
I do it for
I do it for the love

 G 
I do it for the love
I do it for the love

 Bm - A - G G - Bm - A - G

Carnal Mind chords – Damian Marley

 Repeat:  Dm | C 
throughout the whole song.



Zion, Holy mount Zion, Zion
Better to go to Zion, More then burn in a fire
Better to go to Zion, More then burn in a fire
Me say dash your badness, and your bad mind
The carnal mind, have to stay behind
So honor your mamma and your father
Or else your days will feel longer
Better to go to Zion, More then burn in a fire
Better to go to Zion, More then burn in a fire
Oh, when me constantly can’t, then
You can’t go to Zion with no carnal mind, Carnal mind have to be left back behind
Can’t go to Zion with no chain and ring, Your chain and ring have to go to the mountain
You can’t go to Zion with no portable phone, portable phone have to be left back…
You can’t go to Zion with no big rusty nine, Big rusty nine have to be left back behind
Emperor Selassie so pure and divine, emperor Samiga splendid all the time
Look into the scripture and see what you find, Look at the Revelations Chapters five 
verse five
Same root of David is Salomon line, Salomon seed, and Salomon Spine, of ancient receipts 
of cure rude swine
And come down the humans say one more time
Owww
The prophet has raised again
Aww..
Owww
The prophet has raised again
Awww
Ah when me constantly can’t then you can’t go to Zion with no carnal mind, Carnal mind 
have to be left back behind
Can’t go to Zion with no chain and ring, Your chain and ring have to go to the mountain
You can’t go to Zion with no portable phone, portable phone have to be left back…
You can’t go to Zion with no big 45, the big 45 have to be left back behind
The eagle and the bear, and all the dragon combined, implied jizabell, and them
Grow concubine, can’t see the truth them must be blind, them blind
Just read about the news in Revelations Nine, and ell me how you feel about the black 
star line
Better pack your bag for a mountain climb, and all of them playaz and still them rewind
You walk with your nine keep one thing in mind
Better to go to Zion, More then burn in a fire
Better to go to Zion, More then burn in a fire

You see, no either … and make your life more comfortable chapter a day keep all evil 
away, and listen to the prophet and hear what him say, Better to go to Zion, More then burn 
in a fire, Better to go to Zion, More then burn in a fire
You can’t go to Zion with no carnal mind, Carnal mind have to be left back behind
Can’t go to Zion with no chain and ring, Your chain and ring have to go to the mountain
You can’t go to Zion with no portable phone, portable phone have to be left back at home
You can’t go to Zion with no big rusty nine, Big rusty nine have to be left back behind
Give me the microphone and burn down Rome, and all of them Churches which cast them stone
And fight again the lion of the royal throne, and … danger zone, the world become a 
graveyard of skulls and bones and mount Zion is the the safest crown. Upon a holy mountain 
the city was found, that’s where the … choice to wear them crown
The prophet has rised again

Lose Your Mind Tabs by Corrupt Politicians

 -------------------------------------------------------------------------------
                             Lose Your Mind - Corrupt Politicians
-------------------------------------------------------------------------------


Tuning: EADGBE

INTRO:
e|---------------------|
B|---------------------|          
G|---------------------|     X64     
D|--7------------------|
A|--7------------------|
E|--5------------------|

VERSE:
e|--------------------------------------------------------------------------|
B|--------------------------------------------------------------------------|
G|--------------------------------------------------------------------------|
D|-7-7-7-7/-4-4-4-4/-11-11-11/-14/-11/-9/-11/-9-----------------------------|
A|-7-7-7-7/-4-4-4-4/-11-11-11/-14/-11/-9/-11/-9-----------------------------|
E|-5-5-5-5/-2-2-2-2/-9--9--9/--12/--9/-7/--9/-7-----------------------------|

CHORUS:
e|--------------------------------------------------------------------------|
B|--------------------------------------------------------------------------|
G|-14----11-9-6-------------------------------------------------------------|
D|-14----11-9-6-------------------------------------------------------------|
A|-12-----9-7-4-------------------------------------------------------------|
E|--------------------------------------------------------------------------|

THAT'S ALL! 
HERE'S THE ORDER OF THE SONG:
INTRO
VERSE X8
CHORUS X4
INTRO 
VERSE X8
CHORUS
OUTRO (JUST PLAY CHORUS CHORDS QUICKLY)
************************************

| /   slide up
| \   slide down
| h   hammer-on
| p   pull-off
| ~   vibrato
| +   harmonic
| x   Mute note
| b   Bend
| pb  Pre-bend
| br  Bend release
| pbr Pre-bend release
| brb Bend release bend

************************************

Money On My Mind chords – Sam Smith V3

  madelmusic



Intro:  Bm ,  A ,  D ,  G BM 
When I saw my deal
 A 
I felt pressure
 D 
Don't wanna see the numbers
 G 
I wanna see heaven

 Bm 
You said could you
 A 
Write a song for me
 D G 
I say I'm sorry I won't do that hapily

Pre-Chorus:
 Bm A           
When I go ohhh
  D G   
I tend to close the door
                       Bm A 
I never want to know
                      D 
So sing with me
                 G 
Can't you see

Chorus:
 G        
I don't have
 Bm               
Money on my mind
 A 
Money on my mind
 D 
I do it for
 D G 
I do it for the love 
 G        
I don't have
 Bm               
Money on my mind
 A 
Money on my mind
 D 
I do it for
 D G 
I do it for the love
                     Bm A        
I do it for the love
  D G 
I do it for the love

 Bm 
Please don't get me wrong
 A 
I wanna keep it moving
 D G 
I know what that requires

 Bm 
I'm not foolish
 A 
Please can you make this work for me
 D G  
Cause I'm not a puppet I won't work against your strings

Pre-Chorus:
 Bm A           
When I go ohhh
  D G   
I tend to close the door
                       Bm A 
I never want to know
                      D 
So sing with me
                 G 
Can't you see

Chorus:
 G        
I don't have
 Bm               
Money on my mind
 A 
Money on my mind
 D 
I do it for
 D G 
I do it for the love 
 G        
I don't have
 Bm               
Money on my mind
 A 
Money on my mind
 D 
I do it for
 D G 
I do it for the love
                     Bm A        
I do it for the love
  D G 
I do it for the love


 D  
When the sun sets
 A 
Don't you fret
 Bm G        
No I have no money on my mind
 D 
No money on my mind
 A 
No money on my mind
 Bm G 
No I have have money on my mind

 D  
When the sun sets
 A 
Don't you fret
 Bm G        
No I have no money on my mind
 D 
No money on my mind
 A 
No money on my mind
 Bm G 
No I have have money on my mind
 D        
Just love

Chorus:
 G        
I don't have
 Bm               
Money on my mind
 A 
Money on my mind
 D 
I do it for
 D G 
I do it for the love 
 G        
I don't have
 Bm               
Money on my mind
 A 
Money on my mind
 D 
I do it for
 D G 
I do it for the love
                     Bm A        
I do it for the love
  D G 
I do it for the love

Your Ever Changin Mind chords – Crispian St Peters

 Your Ever Changin' Mind:Crispian St. Peters.
#106 on BB Hot 100 on DECCA/JAMIE Records in
1966.

INTRO:  Bbm 

#1.
 Bb Ab Gm7 Cm Eb 
One day you're true to me..next day you're through 
      F 
with me.
 Bb Ab G7 C Eb 
One day your world is mine..next day the sun 
       F 
don't shine.

CHORUS:
 Bb Eb Bb Eb 
Make up your mind, baby..don't keep me on the line, 

baby.
 Bb Eb Ab F 
Make up your ever changing mind..good love is so 
         Bb 
hard to find.

#2.
 Bb Ab Gm7 Cm Eb F 
I can't go on this way..you change from day to day.
   Bb Ab Gm7 C Eb 
I just don't just ever know..which way the wind 
      F 
will blow.

CHORUS:
 Bb Eb Bb Eb 
Make up your mind, baby..don't keep me on the line, 

baby.
 Bb Eb Ab F 
Make up your ever changing mind..good love is so 
         Bb 
hard to find.

BRIDGE:
   Dm Gm7 Dm 
A thought in my mind tells me..to give your love a 
     G 
'so long.'
 Bb A7 Dm F 
What fool can be a fool for just so long..just so long.

CHORUS:
     Bb Eb Bb Eb 
So, make up your mind, baby..don't keep me on the line, 

baby.
 Bb Eb Ab F 
Make up your ever changing mind..good love is so 
         Bb F 
hard to find.

CHORUS:
             Bb Eb Bb                    
You better, make up your mind, baby..don't keep me on 
     Eb 
the line, baby.
 Bb Eb Ab F 
Make up your ever changing mind..good love is so 
         Bb F 
hard to find.

OUTRO:
             Bb Eb Bb                    
You better, make up your mind, baby..don't keep me on 
     Eb 
the line, baby..(Fade.)


A sixties smash from Kraziekhat.

Money On My Mind chords – Sam Smith V2

 Intro:   D A G 

Verse 1 :
                Bm       
When I sign my deal
         A 
 I felt pressure
                        G 
 Don't want to see the numbers

 I want to see heaven
                Bm 
 You say, could you
                   A 
 Write a song for me
                G 
 I say I'm sorry I won't do that happily

Pre Chorus:
              A 
When I go home
                      D  
 I tend to close the door
                 G A 
 I never wanted more
               D 
 So sing with me

 Can't you see

Chorus: X2

 I don't have
  Bm 
 Money on my mind
  A 
 Money on my mind
    G 
 I do it for

 I do it for the love
                    Bm 
 I do it for the love
 A G 
   I do it for the love

Verse 2:

 Please don't get me wrong
 I want to keep it moving
 I know what that requires
 I'm not foolish
 Please can you make this work for me
 Cos I'm not a puppet I will work against your strings

Pre Chorus:

 When I go home
 I tend to close the door
 I never wanted more
 So sing with me
 Can't you see

Chorus: X2

 I don't have
 Money on my mind
 Money on my mind
 I do it for
 I do it for the love
 
 I do it for the love
 I do it for the love

Bridge:   X2
                   D 
 When the sun will set
     A 
 Don't you fret
  Em G C 
 No I have no money on my mind
     D 
 No money on my mind
     A 
 No money on my mind
  G 
 No I have money on my mind

Just love

Instrumental:  Bm A G   x3

Chorus:

 Money on my mind
 Money on my mind
 I do it for
 I do it for the love
 
 I do it for the love
 I do it for the love

 I don't have
 Money on my mind
 Money on my mind
 I do it for
 I do it for the love
 
 I do it for the love
 I do it for the love


Outro:   Bm A G  (finish on  G )

Money On My Mind chords – Sam Smith

  Kwint & Troy (from Sir Jupiter).

Hope you enjoy this song, and don't forget to check out our band Sir Jupiter here : 
https://www.facebook.com/sirjupiter  

Artist : Sam Smith
Song : Money On My Mind
Album : Money On My Mind - Single [2014]


INTRO:  Bm A G 


VERSE:

                   Bm 
When I signed my deal
        A 
I felt pressure
                     G 
Don't wanna see the numbers

I wanna see heaven
                Bm 
You said could you
                  A 
Write a song for me
           G 
I say I’m sorry I won’t do that happily



PRECHORUS:

           G A 
When I go home
                     D 
I tend to close the door
                G A 
I never wanted more
              D 
So sing with me

Can't you see,  I don't have



CHORUS:

 Bm 
Money on my mind
 A 
Money on my mind
   G 
I do it for

I do it for the love

I don't have

 Bm 
Money on my mind
 A 
Money on my mind
   G 
I do it for

I do it for the love
                 Bm A 
I do it for the love
                 G 
I do it for the love


VERSE:

                     Bm 
Please don't get me wrong
                    A 
I want to keep it moving
                    G 
I know what that requires

I'm not foolish
            Bm 
Please can you 
                    A 
Make this work for me
                 G 
Cause I'm not a puppet I will work against your strings


PRECHORUS:

           G A 
When I go home
                     D 
I tend to close the door
                G A 
I never wanted more
              D 
So sing with me

Can't you see,  I don't have



CHORUS:

 Bm 
Money on my mind
 A 
Money on my mind
   G 
I do it for

I do it for the love

I don't have

 Bm 
Money on my mind
 A 
Money on my mind
   G 
I do it for

I do it for the love
                 Bm A 
I do it for the love
                 G 
I do it for the love


BRIDGE:

          D 
When the sun sets
 A 
Don't you fret
 Bm G 
No I have no money on my mind
    D 
No money on my mind
    A 
No money on my mind
 Bm G 
No I have have money on my mind
          D 
When the sun sets
 A 
Don't you fret
 Bm G 
No I have no money on my mind
    D 
No money on my mind
    A 
No money on my mind
 Bm G 
No I have have money on my mind

Just love


INTERLUDE:  Bm A G    x3


CHORUS:

 Bm 
Money on my mind
 A 
Money on my mind
   G 
I do it for

I do it for the love

I don't have

 Bm 
Money on my mind
 A 
Money on my mind
   G 
I do it for

I do it for the love
                 Bm A 
I do it for the love
                 G 
I do it for the love


OUTRO:  Bm A G 




If you have any suggestions/corrections, please let us know in the comments!

Put Your Mind At Ease chords – Every Mothers Son

 Put Your Mind At Ease:Every Mother's Son.
#8 on Canadian RPM and #46 on BB Hot 100
on MGM Records in 1967.

INTRO:  B A  (x3)  E 


#1.
 E 
Walking with care as I climb every step of 
     A 
the stairway.
 E 
Knowing that she's thinking only of me while 
     A D 
her parents are holding her their way.
 E A E A 
Why must I feel like I've tried to steal what 

she's giving?
 E D E 
Now is the time that we both take a stand and 
      A Am7 G 
it's time that we learned about livinggggg.

BRIDGE:
  F 
(Put your mind at ease) go put your mind at ease

under the trees out where it's breezy.
  A D A D 
(Annd) nobody here but me and you..we'll do the 
 A D 
things we meant to do.
           Am7 E 
Sit back, relax, we'll take it easyyyyyy.

#2.
 E 
Things that are good can be misunderstood and 
 A 
mistaken.
 E A 
Dying to know the direction to go and it's time 
                     D 
that some action be taken.
 E 
We cannot fight cause we're doing it right..but 
        A 
you're losing.
 E 
Gone for the ride now they let you decide on the
 A G 
exit you plan to be usinggggg.

BRIDGE:
  F 
(Put your mind at ease) go put your mind at ease

under the trees out where it's breezy.
  A D A D 
(Annd) nobody here but me and you..we'll do the 
 A D 
things we meant to do.
           Am7 E 
Sit back, relax, we'll take it easy.

OUTRO:
           Am7 E 
Sit back, relax and take it easyyyyyyyyyy.
 E 
Put your mind at ease..put your mind at ease..(Fade.)


A sixties smash from Kraziekhat.