Tag: misc

Mamma Mia Here We Go Again – My Love My Life chords by Misc Soundtrack

ouldn't find the version from Mamma Mia 2: Here We Go Again with the changed words so thought I'd add it :)



[Intro]

Cb5 - C

[Verse 1: Lily James]

C                     G    G7
I’ve never felt this strong
C         F           C        D7   G
I’m invincible, how could this go wrong?
E7  Am  D7                 G    Em
No, here, here’s where we belong
 Am      D7     G    Em
I see a road ahead
 Am     Am7          Dsus4  D     G   G7   G6
I never thought I would dare to tread


[Chorus: Meryl Streep]

                      G       G7       C
Like an image passing by, my love, my life
        F      D7       G         G7       C
In the mirror  of  your eyes, my love, my life
       C              D7
I can see it all so clearly
              G      Em
All I love so dearly
Am     Am7   D7      G
Images passing by

        G7                G         G7      C
Like reflections of your mind, my love, my life
         F        D7       G        G7       C
Are the words I try to find, my love, my life
        C              F
But I know I don't possess you
   G              C
With all my heart, God bless you
                  F       E     Am
You will be my love and my life
  F              C
You’re my one and only


[Verse 2: Meryl Streep]

C                     G    G7
I held you close to me
C         F            C     D7           G
Felt your heart beat and I thought: I am free
E7  Am  D7                 G    Em
Oh yes, and as one are we
 Am      D7     G    Em
In the now and beyond
Am     Am7          Dsus4  D       G   G7   G6
Nothing and no one can break this bond


[Chorus: Meryl Streep & Amanda Seyfried]

                      G       G7       C
Like an image passing by, my love, my life
        F      D7       G         G7       C
In the mirror  of  your eyes, my love, my life
       C              D7
I can see it all so clearly
              G      Em
All I love so dearly
Am     Am7   D7      G
Images passing by

        G7                G         G7      C
Like reflections of your mind, my love, my life
         F        D7       G        G7       C
Are the words I try to find, my love, my life
        C              F
But I know I don't possess you
   G              C
With all my heart, God bless you
                  F       E     Am
You are still my love and my life

        C              F
Yes I know I don't possess you
   G              C
With all my heart, God bless you
                  F       E     Am
You are still my love and my life
  F              C
You’re my one and only

Sierra Burgess Is A Loser – Sunflower chords by Misc Soundtrack/Shannon Purser

Note: this is for the short version of the song, which is not exactly the same musically
or lyrically as the longer one.


[Intro]

C   F   x2


[Verse 1]

C             F
Rose girls in glass vases
C               F
  Perfect bodies, perfect faces
Am                       F
  They all belong in magazines
C               F
Those girls the boys are chasing
C                 F
  Winning all the games they're playing
Am                              F
  They're always in a different league


[Pre-Chorus]

Am                                     F
Stretching toward the sky like I don't care
Am                                 G
Wishing you could see me standing there


[Chorus]

             C                F
But I'm a sunflower, a little funny
            C                 F
If I were a rose, maybe you'd want me
   Am
If I could, I'd change overnight
    F                       G
I'd turn into something you like
             C                F
But I'm a sunflower, a little funny
            C                 F
If I were a rose, maybe you'd pick me
    Am
But I know you don't have a clue
     F                       G
This sunflower's waiting for you
            C
Waiting for you

F   C   F


[Chorus/Outro]

             C                F
But I'm a sunflower, a little funny
              C                F
And if I were her, maybe you'd pick me
    Am
But I know you don't have a clue
     F                       G
This sunflower's waiting for you
            C
Waiting for you

Warbringers – Jaina Daughter Of The Sea chords by Misc Computer Games

[Verse 1]
   Am               G              Am 
Beware, beware The Daughter of the Sea
 Am       G          Am 
Beware, I heard him cry
    Am     G                     Am 
His words carried upon the ocean breeze
       Em               Am 
As he sank beneath the tide

[Verse 2]
       Am           G             Am 
Those blood-soaked shores of Kalimdor
       Am     G           Am 
Where sailors fought and died
     Am      G           Am 
The admiral fell at Theremore
   Em                 Am 
Because she left his side.

[Chorus 1]
    G 
Why this? Why this?
    Am 
Oh, Daughter of the sea?
    G                                 Am 
Why this? Did you forget your seaside days?
  G              Am 
Always the pride of our nation's eyes.
    Em           Am 
How could she go astray?

[Verse 3]
     Am              G              Am 
When she did flee across the ocean deep
    Am       G        Am 
The admiral followed west
      Am 
What else but sail
    G                Am 
To save a daughter's life
     Em                  Am 
And pray she still drew breath?

[Verse 4]
     Am 
But there he found
  G                 Am 
Upon those distant shores
 Am       G       Am 
Enemies ´pon the rise!
     Am                 G      Am 
But when he faced thos savage foes
     Em              Am 
His daughter stood aside.

[Chorus 2]
    G            Am 
And buried deep beneath the waves.
   G             Am 
Betrayed by family.
        G      Am 
To his nation, with his last breath, cried
           Em              Am 
Beware the Daughter of the Sea.

[Verse 5]
  Am 
I heard, I heard
   G              Am 
Across a moonlit sea.
     Am 
The old voice warning me
 Am                 G              Am 
Beware, beware the Daughter of the sea
  Em              Am 
Beware, beware of me.

Jessica Jones – Wake Up Wake Up chords by Misc Unsigned Bands

[Intro]
E  A  E  B  E  A  E

[Verse 1]
              A                 E               B
That songbird on my window sill he's singing to me
E                     A         E                B
He sings because he's happy that his life can be free
E           A                     E          B
He tells to all the passers-by a joy in the world
E             A                  B           E
He knows that life is heaven for a boy and a girl

[Chorus]
E
Wake up, wake up
A
Wake up to the morning
E                      B
Wake up to the morning sun

E
Wake up, wake up
A
Wake up to the morning
E                      B
Wake up to the morning sun

E
Tell me, tell me
A
Tell me that you'll see me
E                      B
See me when the day is done

E
Wake up, wake up
A
Wake up to the morning
E
Wake up to the morning sun

E            A
La la laa la la laa laa la
E               B
La la laa la la laaaa

E         A         E
La la laa la la laa laa la
E           B       E
La le la la la lala laaaa

[Verse 2]
E             A            E                     B
That songbird on my window sill he's speaking of you
E           A           E             B             E
He sings because he's happy when each night time is through


[Chorus]
E
Wake up, wake up
A
Wake up to the morning
E                      B
Wake up to the morning sun

E
Wake up, wake up
A
Wake up to the morning
E                      B
Wake up to the morning sun

E
Tell me, tell me
A
Tell me that you'll see me
E                      B
See me when the day is done

E
Wake up, wake up
A
Wake up to the morning
E
Wake up to the morning sun

E            A
La la laa la la laa laa la
E               B
La la laa la la laaaa

E         A         E
La la laa la la laa laa la
E           B       E
La le la la la lala laaaa

[Outro]
E
Wake up, wake up
A
Wake up to the morning
E                      B
Wake up to the morning sun

E
Wake up, wake up
A
Wake up to the morning
E                      B
Wake up to the morning sun

E
Tell me, tell me
A
Tell me that you'll see me
E                      B
See me when the day is done

E
Wake up, wake up
A
Wake up to the morning
E
Wake up to the morning sun

Anastasia – Music From The Motion Picture – Once Upon A December chords by Misc Soundtrack V2

[Intro]

Am E Am E


[Verse 1]

Am      E      A7      Dm
Dancing bears, painted wings
Dm       Am      Dm   E
Things I almost remember
Am    E    A7      Dm
And a song someone sings
Dm     Am     E   Am
Once upon a December


[Chorus 1]

Dm               Am
Someone holds me safe and warm
E                       Am     A7
Horses prance through a silver storm
Dm              Am
Figures dancing gracefully
 B7           E
Across my memory


[Instrumental]

Bbm  F  Bb7  Ebm
Ebm  Bbm  Ebm  F
Bbm  F  Bb7  Ebm
Ebm  Bbm  C7  F
Bbm  F  Bb7  Ebm
Ebm  Bbm  F  Bbm


[Chorus 2]

Ebm              Bbm
Someone holds me safe and warm
F                       Bbm    Bb7
Horses prance through a silver storm
Ebm             Bbm
Figures dancing gracefully
 C7           F
Across my memory


[Verse 2]

Bm   F#   B7    Em
Far away, long ago
Em      Bm        Em  F#
Glowing dim as an ember
Bm        F#    B7      Em
Things my heart used to know
Em        Bm          F#  B7
Things it yearns to remember


[Outro]

Em         Bm      B7
And a song someone sings
Em    Bm      F#  Bm
Once upon a December

Sörnai Gusha Sörkan Sällit chords by Misc Traditional

[Verse]
Em                     B7                            Em
Sörnai gusha nietu molotova, sörnai gusha herba moskova,
Em         E7      Am         Em   Am     Em   B7         Em
Njet, njet bonimai votvot risubuska, dara zeva votvot harashoo
Em         E7      Am         Em   Am     Em   B7         Em
Njet, njet bonimai votvot risubuska, dara zeva votvot harashoo

[Verse]
Em                     B7                         Em
Isä Stalin, äiti Hrushtsheva isgi silmää gini-hibragas,
Em     E7     Am           Em    Am     Em   B7         Em
Oi, oi oisiba vodkaa ollut heillä  oisi isgu gäynyd alemmas
Em     E7     Am           Em    Am     Em   B7         Em
Oi, oi oisiba vodkaa ollut heillä  oisi isgu gäynyd alemmas

[Verse]
Em                          B7                                 Em
Tuoksuu tuomet, syreenit ja ruusut, tuoksuu tuolla Volgan randamill,
Em      E7     Am         Em   Am        Em      B7          Em
Ai, ai, kaunis kulta Kaditzusha  tuoksuu tundeet rindas rindamil
Em      E7     Am         Em   Am        Em      B7          Em
Ai, ai, kaunis kulta Kaditzusha  tuoksuu tundeet rindas rindamil

[Verse]
Em                     B7                                Em
Siellä missä versoaapi vilja, siellä kasvoi kaunis Katjuusa.
Em    E7    Am        Em     Am      Em     B7          Em
Katjuusalla komiat on keuhkot, basga haisee Nevan rannalla
Em    E7    Am        Em     Am      Em     B7          Em
Katjuusalla komiat on keuhkot, basga haisee Nevan rannalla

[Verse]
Em                     B7                             Em
Oon vain köyhä kolhoosinainen, ei oo mulla yhtään ystävää.
Em    E7     Am       Em      Am     Em     B7           Em
Ei oo lehmää eikä ole lammasta  eikä suussa yhtään hammasta
Em    E7     Am       Em      Am     Em     B7           Em
Ei oo lehmää eikä ole lammasta  eikä suussa yhtään hammasta

[Verse]
Em                 B7                            Em
Siperian lakeus on suuri, Sonja siellä lunta lapioi.
Em    E7      Am          Em   Am     Em    B7          Em
Sonjalla kävi hiton huono tuuri  länsituuli uutta lunta toi
Em    E7      Am          Em   Am     Em    B7          Em
Sonjalla kävi hiton huono tuuri  länsituuli uutta lunta toi

[Verse]
Em                         B7                             Em
Oon vain köyhä poika Petroskoista, ei oo mulla yhtään ystävää.
Em       E7         Am         Em      Am      Em      B7         Em
Sirppi ja vasara ne taivahalla loistaa,  basga haisee, balalaikka soi
Em       E7         Am         Em      Am      Em      B7         Em
Sirppi ja vasara ne taivahalla loistaa,  basga haisee, balalaikka soi

Baby Shark chords by Misc Children

[Intro]
G G Am D

[Verse]
G
Baby Shark doo doo, doo doo doo doo
Baby Shark doo doo, doo doo doo doo
Am
Baby Shark doo doo, doo doo doo doo
G
Baby Shark
G
Mama Shark doo doo, doo doo doo doo
Mama Shark doo doo, doo doo doo doo
Am
Mama Shark doo doo, doo doo doo doo
G
Mama Shark
G
Papa Shark doo doo, doo doo doo doo
Papa Shark doo doo, doo doo doo doo
Am
Papa Shark doo doo, doo doo doo doo
G
Papa Shark
G
Grandma Shark doo doo, doo doo doo doo
Grandma Shark doo doo, doo doo doo doo
Am
Grandma Shark doo doo, doo doo doo doo
G
Grandma Shark
G
Grandpa Shark doo doo, doo doo doo doo
Grandpa Shark doo doo, doo doo doo doo
Am
Grandpa Shark doo doo, doo doo doo doo
G
Grandpa Shark
G
Hungry sharks doo doo, doo doo doo doo
Hungry sharks doo doo, doo doo doo doo
Am
Hungry sharks doo doo, doo doo doo doo
G
Hungry sharks
G
Little fish doo doo, doo doo doo doo
Little fish doo doo, doo doo doo doo
Am
Little fish doo doo, doo doo doo doo
G
Little fish
G
Swim away doo doo, doo doo doo doo
Swim away doo doo, doo doo doo doo
Am
Swim away doo doo, doo doo doo doo
G
Swim away
G
Swim faster doo doo, doo doo doo doo
Swim faster doo doo, doo doo doo doo
Am
Swim faster doo doo, doo doo doo doo
G
Swim faster
(repeat ‘swim faster verse’ 3 times, getting faster each time)

G
Safe at last doo doo, doo doo doo doo
Safe at last doo doo, doo doo doo doo
Am
Safe at last doo doo, doo doo doo doo
G
Safe at last
G
Bye bye sharks doo doo, doo doo doo doo
Bye bye sharks doo doo, doo doo doo doo
Am
Bye bye sharks doo doo, doo doo doo doo
G
Bye bye sharks

Free Realms Ost Briarheart Tabs – Misc Computer Games

 These are the three themes played throughout THIS OST, 
the themes should follow through the other 2 songs from the Briarwood area.

e|----------------------------------|
B|----------------------------------|
G|----------------------------------|
D|7---6---7---8---7-----------------|
A|-------------------8-7-5-7--------|
E|----------------------------------|

e|----------------------------------|
B|----------------------------------|
G|-------------------7--------------|
D|7---6---7---8---7-----------------|
A|---------------------8-7-5-----5--|
E|---------------------------8------|

e|----------------------------------|
B|----------------------------------|
G|7-----7------10-9-7--9-10-9---7---|
D|--8-----7-------------------------|
A|----------------------------------|
E|----------------------------------|

e|---------------------|  
B|---------------------|  
G|7-----------7--------|  
D|--10-9-9-10----7--6-7|   
A|---------------------|   
E|---------------------| 

e|---------------------|                         
B|---------------------|                     
G|---------------------|                   
D|---------------------|                   
A|5-7-8-8-7-5-7--------|
E|---------------------|

//Original tabbing - diingus
//Many thanks to YouTube user >Scott Cindershot< for ripping the OST and putting it up on YouTube
//His YouTube channel: https://www.youtube.com/user/ScottMoltendawn
//Thanks, Scotty-boy

Outer Senshi Theme Tabs – Misc Soundtrack

 This is my first ever tab so don't be a Sailor Uranus about it. Anyways, I'm pretty
sure the guitar tab to this song doesn't exist anywhere else yet as of 1/6/2016.
So you have no choice but to give this 5 stars by default AHAHAHAHAHA!!!!
-------------------------------------------------------------------------------------------------------------
                             Outer Senshi Theme - Sailor Moon - Takanori Arisawa (R.I.P.)
-------------------------------------------------------------------------------------------------------------

: Ludnorc


Tuning:E Standard

Violin part transposed to guitar
E|-------------------------------------|---------------------------------------------|
B|--------------10---------------------|-----------------10--------------------10----|
G|-9---9--11-12----12-11-9-------------|---9---9--11--12----12--11--9-11-12----------|
D|---9----------------------12-10---12-|-----9---------------------------------------|
A|-------------------------------------|---------------------------------------------|
E|-------------------------------------|---------------------------------------------|
                                                                                           - - - - - - - [[[}
|-------------8-----------------10-8--|------------8---11-8-------------------8--10--|
|12-9-10-12----10-------------------12|-10------10---12-----10--------10--12---------|
|------------------9-12-11--11--------|----11-12---------------11-12-----------------|
|-------------------------------------|----------------------------------------------|
|-------------------------------------|----------------------------------------------|
|-------------------------------------|----------------------------------------------|

the above repeats then the song ends with;

|-12-------|
|----------|
|----9-----|
|----------|
|----------|
|----------|



Huh this guitar tab kinda looks like a pistol..weird...

Steven Universe – Peace And Love On Planet Earth Tabs – Misc Cartoons

 -------------------------------------------------------------------------------
                             Peace & Love (On Planet Earth) - Steven Universe
-------------------------------------------------------------------------------

Provided lyrics are a rough guide.

Tuning: Standard

    Life...       love...         peace...        planet earth
e|8-----8---------7-----7---------7-----7---------5-----5---------|
B|8---------8-----8---------8-----5---------5-----5---------5-----|
G|9-----------9---9-----------9---5-----------9---5-----------5---|
D|----------------------------------------------------------------|
A|----------------------------------------------------------------|
E|----------------------------------------------------------------|

    Is there   anything...        Peace...        planet earth?
e|8-----8---------7-----7---------7-----7---------5-----5---------|
B|8---------8-----8---------8-----5---------5-----5---------5-----|
G|9-----------9---9-----------9---5-----------9---5-----------5---|
D|----------------------------------------------------------------|
A|----------------------------------------------------------------|
E|----------------------------------------------------------------|

    Come on...    Me,               the words...  key,
e|8-----8---------7---------------7-----7---------5---------------|
B|8---------8-----8---------------5---------5-----5---------------|
G|9-----------9---9---------------5-----------9---5---------------|
D|----------------------------------------------------------------|
A|----------------------------------------------------------------|
E|----------------------------------------------------------------|

    If...           if...           then...       me,
e|8-----8---------7-----7---------7-----7---------5---------------|
B|8---------8-----8---------8-----5---------5-----5---------------|
G|9-----------9---9-----------9---5-----------9---5---------------|
D|----------------------------------------------------------------|
A|----------------------------------------------------------------|
E|----------------------------------------------------------------|

    Life...       love...           Life...       love...  But using
e|8-----8---------7---------------7-----7---------5---------------|
B|8---------8-----8---------------5---------5-----5---------------|
G|9-----------9---9---------------5-----------9---5---------------|
D|----------------------------------------------------------------|
A|----------------------------------------------------------------|
E|----------------------------------------------------------------|

  mi fa mi mi fa  mi ti la    and peace...        planet earth,
e|8-----8---------7-----7---------7-----7---------5-----5---------|
B|8---------8-----8---------8-----5---------5-----5---------5-----|
G|9-----------9---9-----------9---5-----------9---5-----------5---|
D|----------------------------------------------------------------|
A|----------------------------------------------------------------|
E|----------------------------------------------------------------|
    Yes, yes, that's it...
e|8-----8---------7---------------7-----7---------5---------------|
B|8---------8-----8---------------5---------5-----5---------------|
G|9-----------9---9---------------5-----------9---5---------------|
D|----------------------------------------------------------------|
A|----------------------------------------------------------------|
E|----------------------------------------------------------------|

  You should write...                                   ...already
e|8-----8---------7-----7---------7-----7---------5-----5---------|
B|8---------8-----8---------8-----5---------5-----5---------5-----|
G|9-----------9---9-----------9---5-----------9---5-----------5---|
D|----------------------------------------------------------------|
A|----------------------------------------------------------------|
E|--------------------------------

Frosty The Snowman chords – misc christmas Vsion 5

 Frosty the Snowman                                                      1+2+3+4+
                                                                        D DU UDU
G x3
Thumpety thump thump, thumpety thump thump, 
               D x4
Look at Frosty go. 

Thumpety thump thump, thumpety thump thump, 
                                               G x1
over the hills of snow...                                   Oh... 

Verse 1:
G x2                       C9 x1          G x1
Frosty the Snow Man, was a jolly happy soul 
       C9 x1                  G x1
With a corn-cob pipe and a button nose
        D x1                G x1
and two eyes made out of coal.


Verse 2:
G x2                      C9 x1              G x1
Frosty the Snow Man, is a fairy tale they say
       C9 x1                   G x1       
He was made of snow but the children know 
       D x1            G x1
how he came to life one day.


Bridge:
      C9 x1              C9/B x1         Amx1               G x1
There must have been some magic in that old silk hat they found,
    D x1             D x1       Em x1            D x1
For when they put it on his head he began to dance around.


Verse 3:
    G x2                        C9 x1              G x1
Oh, Frosty the Snow Man was alive as he could be, 
        C9 x1                    G x1                       
And the children say he could laugh and play 
         D x1       G x1
just the same as you and me.


Verse 4:
G x2                             C9 x1               G x1
Frosty the Snow Man,'  knew the sun was hot that day,
      C9 x1                          G x1                       
So he said, "Let's run  and we'll have some fun     
    D x1        G x1
now before I melt away."


Verse 5:
G x2                        C9 x1               G x1
Down to the village, with a broomstick in his hand,
        C9 x1                  G x1                       
Running here and there all around the square,
       D x1         G x1
saying "Catch me if you can."


Bridge 2:
   C9 x1              C9/B x1             Am x1            G x1
He led them down the streets of town right to the traffic cop,
       D x1            D x1          Em x1               D x1
And he only paused a moment when he heard him holler, "Stop!"


Verse 6:
G x2                         C9 x1           G x1
Frosty the Snow Man had to hurry on his way,
       C9 x1                        G x1                        
But he waved good-bye, saying, "Don't you cry;
      D x1           G x1
I'll be back again some day."


Ending:
G x3
Thumpety thump thump, thumpety thump thump, 
               D x4
Look at Frosty go. 

Thumpety thump thump, thumpety thump thump, 
                         G*(strum once)
over the hills of snow...

Feliz Navidad chords – misc christmas Vsion 7

 G          C                                                                    1+2+3+4+
Feliz Navidad,                                                                  D DU UDU
 D G 
Feliz Navidad,
 G C D G 
Feliz Navidad, próspero ano y felicidad.
 G C     
Feliz Navidad,
 D G 
Feliz Navidad,
 G C D G 
Feliz Navidad, próspero ano y felicidad.

G*                 C                                              G*=strum once
I wanna wish you a Merry Christmas,
 D G 
I wanna wish you a Merry Christmas,
 Em C 
I wanna wish you a Merry Christmas,
          D G 
from the bottom of my heart.

 G C     
Feliz Navidad,
 D G 
Feliz Navidad,
 G C D G 
Feliz Navidad, próspero ano y felicidad.
 G C     
Feliz Navidad,
 D G 
Feliz Navidad,
 G C D G 
Feliz Navidad, próspero ano y felicidad.

Repeat 2 times

G*                 C
I wanna wish you a Merry Christmas,
 D G 
I wanna wish you a Merry Christmas,
 Em C 
I wanna wish you a Merry Christmas,
          D G 
from the bottom of my heart.

When Christmas Comes To Town Polar Express Tabs – Misc Christmas

 -------------------------------------------------------------------------------
                             When Christmas Comes To Town - Polar Express
-------------------------------------------------------------------------------
Based off Youtube Song : When Christmas Comes To Town ~ The Polar Express [Lyrics]

Channel: https://www.youtube.com/user/ThePapazeke
BUT IN WRITING!!!

MAKE SURE TO RATE THE TAB AND FOLLOW THE YOUTUBER CHANNEL IF YOU FIND IT HELPFUL!! ENJOY IT <3

Tuning:Standard Tuning 
NO CAPO NEEDED!!

e|------------------|------------------|------------------|------------------|
B|----------------0-|------------------|----------------0-|------------------|
G|----0-----2-------|----0-------------|----0-----2-------|----0-------------|
D|-0-----0-----0----|-0-----0-----0----|-0-----0-----0----|-0-----0-----0----|
A|------------------|----------3-----2-|------------------|----------3-----2-|
E|------------------|------------------|------------------|------------------|
I'm wishing on a star| And trying to believe| That even though it's far| He'll find me Christmas Eve

e|---------------------|---------------------|------------------------------|
B|-0--1--1--1--0--0----|-------0-----0--3----|-0--1--0--------1--0----------|
G|-------------------2-|-0--2-----2--------0-|----------0-----------2--0--0-|
D|---------------------|---------------------|-------------0----------------|
A|---------------------|---------------------|------------------------------|
E|---------------------|---------------------|------------------------------|
I guess that Santa's busy| 'Cuz he never comes around| I think of him when Christmas comes to town

e|------------------|------------------|------------------|------------------|
B|----------------0-|------------------|-------------3--0-|------------------|
G|----0-----2-------|----0-------------|----0-----2-------|----0-------------|
D|-0-----0-----0----|-0-----0-----0----|-0-----0----------|-0-----0-----0----|
A|------------------|----------3-----2-|------------------|----------3-----2-|
E|------------------|------------------|------------------|------------------|
The best time of the year| When everyone comes home| With all this Christmas cheer| It's hard to be alone

e|---------------------|---------------------|------------------------------|
B|-1--1--1--0--0-------|-------0-----0--3----|-0--1--0--------1--0----------|
G|----------------2--2-|-0--2-----2--------0-|----------0-----------2--0--0-|
D|---------------------|---------------------|-------------0----------------|
A|---------------------|---------------------|------------------------------|
E|---------------------|---------------------|------------------------------|
Putting up the Christmas tree| With friends who come around| It's so much fun when Christmas comes to town

e|------------------------|---------------|------------------------|---------------|
B|------------------------|---------------|------------------------|---------------|
G|-0--0--0--3--2--0-------|----------2--0-|-0--0--0--3--2--0-------|----------2--3-|
D|-------------------3--0-|-3--0--3-------|-------------------3--0-|-3--0--3-------|
A|------------------------|---------------|------------------------|---------------|
E|------------------------|---------------|------------------------|---------------|
Presents for the children| Wrapped in red and green| All the things I heard about| But never really seen

e|------------------|---------------------|---------------------|
B|------------------|---------------------|----1--2--2--2--2--3-|
G|-0--0--0--0--2--2-|-0--2--3--2--0--2--3-|-3-------------------|
D|------------------|---------------------|---------------------|
A|------------------|---------------------|---------------------|
E|------------------|---------------------|---------------------|
No one will be sleeping| On the night of Christmas Eve| Hoping Santa's on his way...

INSTRUMENTAL (SINGING IS 

Naruto – Long Kiss Goodbye chords – Misc Cartoons

 *all verses: same chords

Capo 4

intro:  G6 Asus2 Bm7 D G6 Asus2 Dsus2 D G6 
 Kondo wa itsu aeru ka nante 
 Asus2 
 Sonna kao shite yoku ieru tte 
  Bm7 
Omotteta yo nande darou
 Em 
 Nanimo ki ni naranai furi shite 
 Asus2 
 Iiwake suru nara kiku wa asa made 
 Dsus2 F# 
Tsunagattetai kara

     G6 
Mou kao mo mitakunai meguro gawasoi 
  Asus2 
Arienai tenkai odoru keetai 
 Bm7 
gubbai meeru naraba wasuretai 

"Hold me tight" but "dokka kietai" 
 Em 
any time shaberi sugi no KY 
 Asus2 
 Chirari miseru tsuyogari na "I cry" 
 Dsus2 
 Namida no kouka wa dore kurai?

Chorus:
         G6 Asus2 Bm7 D 
Watashi nari ni "ai saretai" afureru no ni kimi ga mienai 
         Em Asus2 D F# 
Nido to kimi ni aenai sonna ki ga surunda... 
       G6 Asus2 Bm7 
Tsutaetai no ni umai kotoba miataranai 
           D G6 Gm D 
Watashi tabun uso demo ii no ni "ikanai de" mo ienai yo

 G6 
Kushami suru to deru henna koe to 
 Asus2 
Kushakusha ni warau busaiku na kao 
   Bm7 
Tomaranai ase me wo kosuru kuse 

Dousetsu maranai aitsu no tokusei
 Em 
Nite mo nitsu kenai futari no sutairu 
 Asus2 
Muda ni Shy sensu wa yayanai 
 Dsus2 
Uso tsuku toki no fukumi warai uzai 
 F# 
Tokku ni barebare mendokusai

 G6 
 Tamatama kareshi ga inai taimingu de 
 Asus2 
 Hima tsubushi teido no koitte 
 Bm7 
Tomodachi ni mo iiwake shitete 

Masaka watashi ga oikaketeru... nande?
 Em 
Tsumaranai jooku wa ittsumo kudoku 
 Asus2 
Dokomademo tsudzuku akiaki na tooku 
 Dsus2 
Sono tabi rokku kondo wa watashi kara knock

Chorus:
         G6 Asus2 Bm7 D 
Watashi nari ni "ai saretai" afureru no ni kimi ga mienai 
         Em Asus2 D F# 
Nido to kimi ni aenai sonna ki ga surunda... 
       G6 Asus2 Bm7 
Tsutaetai no ni umai kotoba miataranai 
           D G6 Gm D 
Watashi tabun uso demo ii no ni "ikanai de" mo ienai yo

Bridge:
 Em Asus2 Bm7 Dsus2 
Nigittetate ga hanaretara 
         G6 Em 
Kimi wa itsuka wasurechau no? 
   Asus2 F# 
Watashi no koto

Chorus:
         G6 Asus2 Bm7 D 
Watashi nari ni "ai saretai" afureru no ni kimi ga mienai 
         Em Asus2 D F# 
Nido to kimi ni aenai sonna ki ga surunda... 
       G6 Asus2 Bm7 
Tsutaetai no ni umai kotoba miataranai 
           D G6 Gm D 
Watashi tabun uso demo ii no ni "ikanai de" mo ienai yo

Fallout 4 – Main Theme Tabs – Misc Computer Games Vsion 2

 -------------------------------------------------------------------------------
                             Fallout 4 - Main Theme
-------------------------------------------------------------------------------
: Dan Foy

Tuning: Standard


Intro
     main                                   background
e|---------------------------------------------------------------------------|
B|---------------------------------------------------------------------------|
G|------------------------------------------8-10-8---------------------------|
D|----------------------------5----------------------------------------------|
A|---3-6--7----3-6--7----3-6----5--3-5---------------------------------------|
E|---------------------------------------------------------------------------|


Chorus 1
     main              background     main            background              
e|----------------------------------------------------8--10------------------|
B|----------------8--------8----------------------8--------------------------|
G|---7--5---3--5--5----5-8---7-3-5----8--10---7-3-5--------------------------|
D|---------------------------------------------------------------------------|
A|---------------------------------------------------------------------------|
E|---------------------------------------------------------------------------|
     main              background   main            background
e|---------------------8--6--8----------------------8------------------------|
B|----------------8-----------------------------8----------------------------|
G|---8--7--5-3-5--5-----------------8--7--5-3-5-5----------------------------|
D|---------------------------------------------------------------------------|
A|---------------------------------------------------------------------------|
E|---------------------------------------------------------------------------|


Modified intro
     main                                 main/background
e|---------------------------------------------------------------------------|
B|----------------------------------------6----------------------------------|
G|---------------------------------------------------------------------------|
D|------------------4---------------------3----------------------------------|
A|---3--6--7--6--3---------3--6--7--6--3-------------------------------------|
E|---------------------------------------------------------------------------|


Bridge
     main
e|----------------------------------6--7--9--9-------------------------------|
B|-----------------------6--8--9-9-------------------------------------------|
G|---5--8--9----5--8--9------------------------------------------------------|
D|---------------------------------------------------------------------------|
A|---------------------------------------------------------------------------|
E|---------------------------------------------------------------------------|


High chorus/swell
     main                 background      main/background
e|---11--12--11--9----9-----------------------------------6--9--9------------|
B|-----------------12-----------------------7-----------9-7--7--9------------|
G|------------------------9-8-9--6---6----9---8---6-6-6-6--------------------|
D|---------------------------------9-7----------9-8-6-8----------------------|
A|---------------------------------------------------------------------------|
E|---------------------------------------------------------------------------|


Outro
    main
e|---------------------------------------------------------------------------|
B|---------------------------------------------------------------------------|
G|-----------------------------6---------------------------------------------|
D|--------------------------7--6---------------------------------------------|
A|---4--7--8---4--7---7--9-----4---------------------------------------------|
E|--------------------5--5---------------------------------------------------|




I waited years f

Good Christian Men Rejoice Tabs – Misc Traditional

 -------------------------------------------------------------------------------
                good christian men rejoice - traditional
-------------------------------------------------------------------------------
:

key of F
Tuning:E-A-D-G-B-e

e|---------------------------------------------------------------------------|
B|-----------------------1-3-1-1-----------------------1-3-1-1---3---1-------|
G|----------------2---3----------------------2----3----------------------3---|
D|--3---3---3-----3---0--3---3-2---3-----3---3----0----3---3-3---3---2---5---|
A|------3---3----------------------3-----------------------------------------|
E|---------------------------------------------------------------------------|
  good christian men rejoice with heart and soul and voice give ye heed to 
e|---------------------------------------------------------------------------|
B|----------------------------------------1---3----1-------------------------|
G|--2---0-------0-0---2-----0-------0--2----------------3--2---0-----------0-|
D|--3---2--3----0-----3-----2---3---3--3--3---3----2----5--3---2---3---3---0-|
A|---------5-------------------------------------------------------5---------|
E|---------------------------------------------------------------------------|
  what we say Jesus Christ is born today man and beast before him bow and he
e|---------------------------------------------------------------------------|
B|---------------------------------------------------------------------------|
G|0---2--0------0---2------------------------2------2--0----0----------------|
D|0---3--2---3--3---3----0-----0---2---2-3---3------3--3----2-3--------------|
A|-----------------------------1---3---3-3-----------------------------------|
E|---------------------------------------------------------------------------|
  is in the manger now Christ is born today Christ is born today



************************************

| /   slide up
| \   slide down
| h   hammer-on
| p   pull-off
| ~   vibrato
| +   harmonic
| x   Mute note
| b   Bend
| pb  Pre-bend
| br  Bend release
| pbr Pre-bend release
| brb Bend release bend

************************************

Roary The Racing Car Theme intro Tabs – Misc Television

 -------------------------------------------------------------------------------
                             Roary The Racing Car Theme
-------------------------------------------------------------------------------
: Daniel Bis
 danbis1999

Tuning: Standard

E|--------------------------------------------------------
B|--10-------------------------------10-------------------
G|------9--9--9--9--7--------------------9--9--9--9--7----
D|---------------------7--------------------------------7-
A|--------------------------------------------------------
E|--------------------------------------------------------
 ♫ Roar-y The Ra-c-ing Car         Roar-y My num-ber one star ♫

E|---------------------------------------------------------
B|---------------------------------------------------------
G|-7--7--7--7-----9--9--9--9-----7--7--7--7-----9--9--9--9-
D|---------------------------------------------------------
A|---------------------------------------------------------
E|---------------------------------------------------------
 ♫ He's comin' to the line      Watch out Roary!
               Lookin Real fine               They're right behind ya!
                                                                     Come on! ♫
-Repeat-


Yeah that's about it :)
Best to listen to the theme on YouTube as well
Message me if needs changes
Thanks

Alle Meine Entchen chords – Misc Children

 G C G C G 
Alle meine Entchen schwimmen auf dem See, schwimmen auf dem See,
 C G D G 
Köpfchen in das Wasser, Schwänzchen in die Höh'.

 G C G C G 
Alle meine Täubchen gurren auf dem Dach,gurren auf dem Dach,
 C G D G 
eins fliegt in die Lüfte, fliegen alle nach.

 G C G C G 
Alle meine Hühner scharren in dem Stroh,scharren in dem Stroh
 C G D G 
finden sie ein Körnchen, sind sie alle froh.

 G C G C G 
Alle meine Gänschen watscheln durch den Grund,watscheln durch den Grund,
 C G D G 
suchen in dem Tümpel, werden kugelrund.

Polybridge – Track 3 intro Tabs – Misc Computer Games

 -------------------------------------------------------------------------------
                          Track 3 - Polybridge Soundtrack
-------------------------------------------------------------------------------
: Elliot Kempson
 elliotk25

Tuning:EADGBe

e|---------------------------------------------------------------------------|
B|---------------------------12---12h14-------------14-----------------------|
G|--------------9---13---11----------------------13-14---14--13--------------|
D|--------------9--------13-------------14----------14-----------------------|
A|---------9h11----------14-------------14--16-------------------------------|
E|-12--12--------------------------------------------------------------------|


NOTE: I do not own Polybridge or the song, I'm just a fan :)
I don't own the video either, but here it is: https://youtu.be/f4-pitkxPLw
************************************

| /   slide up
| \   slide down
| h   hammer-on
| p   pull-off
| ~   vibrato
| +   harmonic
| x   Mute note
| b   Bend
| pb  Pre-bend
| br  Bend release
| pbr Pre-bend release
| brb Bend release bend

************************************

Final Fantasy Vii – Victory Fanfare Tabs – Misc Computer Games

 -------------------------------------------------------------------------------
                             SONG NAME Victory Fanfare- Band Name FFVII
-------------------------------------------------------------------------------
:Oli :3
 x.oadversity

Tuning: half step down
                  
eb|5-9-5---5--5-9-5---57975--6-9-6-6-6-9-6--67976-----------------------------|
Bb|------7----------7------7------7-------7------7----------------------------|
Gb|---------------------------------------------------------------------------|
Db|---------------------------------------------------------------------------|
Ab|---------------------------------------------------------------------------|
Eb|---------------------------------------------------------------------------|

eb|5-9-5-5-5-9-5-57975--5-9-5--5-5-9-5--57975---------------------------------|
Bb|-----7-------7------7------6-------6-------6-------------------------------|
Gb|---------------------------------------------------------------------------|
Db|---------------------------------------------------------------------------|
Ab|---------------------------------------------------------------------------|
Eb|---------------------------------------------------------------------------|

eb|5-9-5-5-5-9-5-57975-6-9-6-6-6-9-6-67976------------------------------------|
Bb|-----7-------7-----7-----7-------7-----7-----------------------------------|
Gb|---------------------------------------------------------------------------|
Db|---------------------------------------------------------------------------|
Ab|---------------------------------------------------------------------------|
Eb|---------------------------------------------------------------------------|

eb|7-10-7-7-7-10-7-791097-(x2)-7-11-7-7-7-11-7-791197-------------------------|
Bb|------8--------8------8-----------9--------9------9------------------------|
Gb|---------------------------------------------------------------------------|
Db|---------------------------------------------------------------------------|
Ab|---------------------------------------------------------------------------|
Eb|---------------------------------------------------------------------------|




************************************

| /   slide up
| \   slide down
| h   hammer-on
| p   pull-off
| ~   vibrato
| +   harmonic
| x   Mute note
| b   Bend
| pb  Pre-bend
| br  Bend release
| pbr Pre-bend release
| brb Bend release bend

************************************