Tag: Mountains

Mountains Tabs – Message To Bears Vsion 1

 -------------------------------------------------------------------------------
                             SONG NAME - Band Name
-------------------------------------------------------------------------------
: Daniel Ruggierio Baker
 Ratdoodle8

I got this tab from this video so if you want you can just 
go watch that: https://www.youtube.com/watch?v=GjIrpMZUp7s

Tuning: DADF#AD

Capo 4 (tab relative to capo)

D |---------------------------------------------------------------------------|
A |-5---5---5---5---5---5---5---5---4---4---4---4---4---4---4---4-------------|
F#|---0---0---0---0---0---0---0---0---0---0---0---0---0---0---0---0-----------|
D |---------------------------------------------------------------------------|
A |---------------------------------------------------------------------------|
D |---------------------------------------------------------------------------|

D |---------------------------------------------------------------------------|
A |-5---5---5---5---5---5---5---5---9---9---9---9---12---12---12---12---------|
F#|---0---0---0---0---0---0---0---0---0---0---0---0----0----0----0----0-------|   x2
D |---------------------------------------------------------------------------|
A |---------------------------------------------------------------------------|
D |---------------------------------------------------------------------------|

And we could run away
D |-0-------2---0-------0-----------0-----------0-----------------------------|
A |-------------------------4-----------2-------------------------------------|
F#|-----0-----------0-----------0-----------0---------------------------------|
D |---4-------4---4-------4---4-------4---4-------4---------------------------|
A |-2-----2-----2-----2-----2-----2-----2-----2-------------------------------|
D |---------------------------------------------------------------------------|

Before the light of day 
D |---------2---0-------0-----------0-----------0-----------------------------|
A |-4-----------------------4-----------2-------------------------------------|
F#|-----0-----------0-----------0-----------0---------------------------------|
D |---4-------4---4-------4---4-------4---4-------4---------------------------|
A |-0-----0-----0-----0-----0-----0-----0-----0-------------------------------|
D |---------------------------------------------------------------------------|

You know we always could 
D |-0-------2---0-------0-----------0-----------0-----------------------------|
A |-------------------------4-----------2-------------------------------------|
F#|-----0-----------0-----------0-----------0---------------------------------|
D |---4-------4---4-------4---4-------4---4-------4---------------------------|
A |---------------------------------------------------------------------------|
D |-2-----2-----2-----2-----2-----2-----2-----2-------------------------------|

The mountains say, the mountains say
D |-4-------4---4-------4---7-------7---7-------7-----------------------------|
A |---------------------------------------------------------------------------|
F#|-----0-----------0-----------0-----------0---------------------------------|
D |---4-------4---4-------4---4-------4---4-------4---------------------------|
A |---------------------------------------------------------------------------|
D |-0-----0-----0-----0-----0-----0-----0-----0-------------------------------|


you can figure out for your self how many times that repeats, but that's pretty much the whole thing.



************************************

| /   slide up
| \   slide down
| h   hammer-on
| p   pull-off
| ~   vibrato
| +   harmonic
| x   Mute note
| b   Bend
| pb  Pre-bend
| br  Bend release
| pbr Pre-bend release
| brb Bend release bend

************************************

Sprawl Ii Mountains Beyond Mountains Acoustic chords – Arcade Fire

 Standard Tuning EADGBe 


Intro:  D# 

Verse 1: 

 D# Cm G# D# 
They heard me singin and they told me to stop, quit these pretentious things and just punch the clock
 D# Cm G# D# 
These days my life, I feel it has no purpose, but late at night the feelings swim to the surface
 D# Cm G# D# 
Cause on the surface the city lights shine, they're calling at me, come and find your kind
 D# Cm G# D# 
Sometimes I wonder if the world's so small, that we can never get away from the sprawl


Chorus 1:

 G# D# G# D# G# D# 
Living in the sprawl, dead shopping malls rise like mountains beyond mountains
                Cm G# D# 
And there's no end in sight....I need the darkness, someone please cut the lights!


Verse 2:

 D# Cm G# D# 
We rode our bikes to the nearest park, sat under the swings and kissed in the dark
 D# Cm G# D# 
We shield our eyes from the police lights, we run away, but we don't know why
 D# Cm G# D# 
On the black river, the city lights shine, they're screaming at us, we don't need your kind
 D# Cm G# D# 
Sometimes I wonder if the world's so small, that we can never get away from the sprawl


Chorus 2:

 G# D# G# D# G# D# 
Living in the sprawl, dead shopping malls rise like mountains beyond mountains
                Cm G# D# 
And there's no end in sight....I need the darkness, someone please cut the lights!


Verse 3: 

 D# Cm G# D# 
They heard me singin and they told me to stop, quit these pretentious things and just punch the clock
 D# Cm G# D# 
Sometimes I wonder if the world's so small, can we ever get away from the sprawl?


Chorus 3:

 G# D# G# D# G# D# 
Living in the sprawl, dead shopping malls rise like mountains beyond mountains
                Cm G# D# 
And there's no end in sight....I need the darkness, someone please cut the lights!






(end)

I Miss The Mountains chords – Next To Normal

 C Cm7 Fsus F C/F F6 
There was a time when I flew higher,
 C/F G7sus/C C 
Was a time the wild girl running free would be me
 C/F F6 
Now I see her, feel the fire
 C/F G7sus/C 
Now I know she needs me there to share 
        C 
I'm nowhere

            Dm7 Dm7/C Gsus 
All these blank and tranquil years
 G Dm G/B Am7 G 
Seems they've dried up all my tears
            Dm C G7sus 
And while she runs free and fast
 A7sus Dm C/E F 
Seems my wild days are past

     C G/C Bb/C F        
But I miss the mountains
 C G/C Bb/C F/C 
I miss the dizzy heights
 C G/C Bb/C 
All the manic magic days
                           F C/E Dm  
And the dark depressing nights
 C G/C Bb/C F/C 
I miss the mountains
 C G/C Bb/C F/C 
I miss the highs and lows
 C G/C Bb/C 
All the climbing, all the falling
                   Bb/D Bb/E F 
All the while the wild wind blows
       C/E Dm9 
Stinging you with snow
                       Am7 
And soaking you with rain
 Bb F        
I miss the mountains
 F2               
I miss the pain

 C G/C Bb/C C/Bb Ab Eb 
Mountains make you crazy
 Ab Gm 
Here it's safe and sound
    Ab Eb 
My mind is somewhere hazy
     Bb 
My feet are on the ground
 Dm Am 
Everything is balanced here
     Dm Am/C 
And on an even keel
 Dm Am 
Everything is perfect
            Bm C/Bb Bb 
Nothing's real
           Gsus G Gsus 
Nothing's real

     D A/D C/D G/D 
And I miss the mountains
 D A/D C/D G/D 
I miss lonely climb
 D A/D C/D 
Wandering through the wilderness
         C/E D/F# G 
And spending all my time
       D/F# Em Bm A/B Bm 
Where the air is clear and cuts you like a knife
 C G 
I miss the mountains
 C G 
I, I miss the mountains
             D A/D C/D 
I miss my life
    G/D D 
I miss my life

Defender chords – Kings Kaleidoscope

 Defender
by Kings Kaleidoscope
 Live in Color


Intro:  D !


Verse 1:
 D 
A torrent of destruction hid
my darkest soul from rescuing
I cry to God for help
He heard my voice
 D 
The tainted earth, it rocked and reeled
the heaven’s bow, the mountains kneel
the thunderous voice of God
my covering


Prechorus:
 G A Bm A 
  I will not be afraid
 G A Bm A  
  For my hope is in His name


Chorus:
 D G A Bm  
  Who is a rock but our God?
 D G A Bm 
  Whose blood has sealed our freedom?
 D Em   
  Jesus
 D/F# G 
  our Savior
 D Em 
  Defender
 D/F# G 
    Redeemer


Turn:  D D/F# G Bm A   x2


Verse 2:
     D 
You brought me to a safer place
  D 
equipped my hands and feet with strength
    Bm G D 
So I advance with confidence in Christ
     D 
His precious truth delivers me
      D 
from lies that wage war in me
      Bm G D 
Your victory is mine for all my days


Bridge:
 G Bm D 
You kneel down to raise me up
 D/F# G D/F# G 
You my Lord, You my God
     G Bm D 
You rescue me with reckless love
 D/F# G D/F# G 
Oh my Lord, Oh my God


Outro: 
 D 
Oh oh  oh oh
oh oh oh oh oh oh

All The Poor And Powerless chords – The Digital Age V3

 Intro 1 (x2):  E F#m7 E/G# A C#m7 B E/G# A 

Intro 2 (x2):
  E F#m7 E/G# A C#m7 B E/G# A 
Oh............, ah.........

Verse 1:
 E F#m7 E/G# A 
All the power and powerless
     C#m7 B E/G# A 
And all the lost and lonely
 E F#m7 E/G# A 
All the thieves will come confess
     C#m7 B E/G# A 
And know that You are holy
     C#m7 B E/G# E 
And know that You are holy

Chorus 1:
     C#m7 A E 
And all will sing out, hallelujah
     C#m7 A E 
And we will cry out, hallelujah
     C#m7 A E 
And all will sing out, hallelujah
     C#m7 A E Bsus B 
And we will cry out, hallelujah

Verse 2:
 E F#m7 E/G# A 
All the hearts who are content
     C#m7 B E/G# A 
And all who feel unworthy
 E F#m7 E/G# A 
All who weep with nothing left
      C#m7 B E/G# A 
Will know that You are holy
      C#m7 B E/G# E 
Will know that You are holy

Chorus 2:
     C#m7 A E 
And all will sing out, hallelujah
     C#m7 A E 
And we will cry out, hallelujah
     C#m7 A E 
And all will sing out, hallelujah
     C#m7 A E B E 
And we will cry out, hallelujah

Bridge 1:
 E B 
Shout it, go on and scream it from the mountains
                          C#m7 A 
Go on and tell it to the masses that He is God (x2)
 E B 
Shout it, go on and scream it from the mountains
                          C#m7 A 
Go on and tell it to the masses that He is God, yeah
 E B 
Shout it, go on and scream it from the mountains
                          C#m7 A 
Go on and tell it to the masses that He is God

Bridge 2 & Chorus 3(lyrics only):
 E B 
Shout it, go on and scream it from the mountains
                          C#m7 A E 
Go on and tell it to the masses that He is God

Chorus 3:
     E 
And we will sing out, hallelujah
     B 
And we will cry out, hallelujah
     C#m7 A 
And we will sing out, hallelujah

Tag:
  E F#m7 E/G# A C#m7 B E/G# A 
Oh............, ah.........
  E F#m7 E/G# A C#m7 B E/G# E 
Oh............, ah.........

Hey! Hope you enjoy the tab! I pray that this song will blow you away as much as 
it did to me. God bless!

Tyler
Psalm 121:1-2

Spokes chords – Calexico

 Just a strum friendly rendition, enjoy.

intro:
 Bb Fm 

Verse 1
 Eb Bb     
Started Talking to a couple of weathered strangers
 F Bb 
sittin' down on motor cycles, we passed on the highway
 Eb Bb 
stepped into, the service station
        F F F F Bb Fm             
took a piss, bought water, got fuel till you arrived

verse 2
 Eb Bb 
blood is flowing and mountains are blurring
           F Bb 
there is something stirring, way down inside
 Eb Bb 
barely know my home base home
           Gm F   (pause)
seems I'm rarely there for any share of time

bridge
      Cm Ebm                    
the neighborhood's the same, 
                       Bb F  
they all remember my name, holding no reservations
      Cm Ebm                
the newness is wearing in

chorus:
                     Bb Gm 
I check my eyes to see if they have spokes
  Bb Gm Bb Gm 
see if they are moving, see if they have spokes
  Bb F F F F Bb Fm 
see if there is some where else to ride

break
(slide from  D -Eb)   D -  Eb Bb F Bb Eb Bb 
Barely know, my air base home
            Gm Gm F F F F Bb   (end on  Bb )
Seems I'm rarely there for any share of time, before I ride

The Cascade Tabs by Moving Mountains

 -------------------------------------------------------------------------------
                             Moving Mountains - The Cascade
-------------------------------------------------------------------------------
: WantsLesPaul

Tuning: Tune to Open D, leave the high e alone.

I'm not 100% sure about this, but it sounds really close. I will post a Guitar Pro 
5 tab of the whole song if I ever finish it :p

Intro:Gregory Dunn
e|-------------------------------------------------------------------------|
A|--------0-----------------0-----------------0-----------------0----------|
F#|--------------0-----------------0-----------------0-----------------0---|
D|-----11---11-----------11---11-----------12---12-----------12---12-------|
A|---9---------9-------9---------9-------9---------9-------9---------9-----|
D|-0-----------------0-----------------9-----------------9-----------------|

e|-------------------------------------------------------------------|
A|-------0-----------------0---------------0---------------0---------|
F#|--------------0---------------0---------------0---------------0---|
D|-----7----7------------6---6-----------7---7-----------7---7-------|
A|---4--------4--------4-------4-------9-------9-------9-------9-----|
D|-4-----------------4---------------0---------------0---------------|

Intro:Frank Graniero
e|-------------------------------------------------------------------------------------|
A|-------12----------12----------12----------12--------12-------12-------12-------12---|
F#|10-10----10-10-10----10-10-10----10-10-10----10-8-8----8-8-8----8-8-8----8-8-8----8-|
D|-------------------------------------------------------------------------------------|
A|-------------------------------------------------------------------------------------|
D|-------------------------------------------------------------------------------------|

e|-------------------------------------------------------------------------|
A|-----12-------12-------12-------12-------12-------12-------12-------12---|Live he sometimes plays
F#|7-7----7-7-7----7-7-7----7-7-7----7-8-8----8-8-8----8-8-8----8-8-8----8-|  this string open
D|-------------------------------------------------------------------------|
A|-------------------------------------------------------------------------|and throws in some
D|-------------------------------------------------------------------------| open e's as well

Verse:Gregory Dunn
e|-----0---------------0---------------0---------------0-----------|
A|-------------0---------------0---------------0---------------0---|
F#|----------------------------------------------------------------|
D|-2-2---2-2-2---2-2-2---2-2-2---2-4-4---4-4-4---4-4-4---4-4-4---4-|
A|-----------------------------------------------------------------|
D|-----------------------------------------------------------------|

e|-----0---------------0---------------0---------------0-----------|
A|-------------0---------------0---------------0---------------0---|
F#|----------------------------------------------------------------|
D|-2-2---2-2-2---2-2-2---2-2-2---2-0-0---0-0-0---0-0-0---0-0-0---0-|
A|-----------------------------------------------------------------|
D|-----------------------------------------------------------------|

Verse:Frank Graniero
e|---------0---------------0---------------0---------------0-------|
A|-----0---------------0---------------0---------------0-----------|
F#|--7-------7---7---7-------7---7---7-------7---7---7-------7---7-|
D|-------9-----9---------9-----9---------9-----9---------9-----9---|
A|-7---------------7---------------9---------------9---------------|
D|-----------------------------------------------------------------|

e|---------0---------------0---------------0---------------0-------|
A|-----0---------------0---------------0---------------0-----------|
F#|--7-------7---7---7-------7---7---7-------7---7---7-------7---7-|
D|--

When These Mountains Were The Seashore solo Tabs by Hawksley Workman

 -------------------------------------------------------------------------------
WHEN THE MOUNTAINS WERE THE SEASHORE - Hawksley Workman
-------------------------------------------------------------------------------
:Dylan
Vhabyeryemyennahyah_corbe@hotmail.com

Tuning:Standard

this can be transposed to make it easier to play but this is the way I like to do 
it also this solo is on piano and is probably missing harmonies at parts

Piano solo
e|-------------------------------3--1212-1010------0---------|
B|3h5p3-5-----------3h5-3h5--3---0--1313-1212-8h10--------0--|
G|--------4p2p0-----5---5----0----------------------5h7p5----|
D|-------------2p0-------------------------------------------|
A|-----------------------------------------------------------|
E|-----------------------------------------------------------|

e|3---5h7p5-3h5---10h12-12---10--753-----------3---3h5p3-0---7-7-3-5--|
B|--0--------------------------------5p3---3h5---5-----------3-3-3-3--|
G|--------------------------------------------------------------------|
D|--------------------------------------------------------------------|
A|--------------------------------------------------------------------|
E|--------------------------------------------------------------------|

************************************

| /   slide up
| \   slide down
| h   hammer-on
| p   pull-off
| ~   vibrato
| +   harmonic
| x   Mute note
| b   Bend
| pb  Pre-bend
| br  Bend release
| pbr Pre-bend release
| brb Bend release bend

************************************

In The Dreamtime Chords – Ralph Mctell

 C G C F C Am Dm G        
The scent of smoke on desert wind, beneath the southern cross,
 C G C F C Am Dm G 
Far beyond where time begins, and generations lost.
 C F C 
I could not be further from you now,
      Am F G 
With both feet on the ground. 
            C G C 
But in the dreamtime souls take flight, 
     F C G C 
And I am closer to you now.
    C G C F C Am Dm G 
If I should lay me down to sleep, by forest green or shining lake,
 C G C F C Am G C          
I could arise to find it gone, to take for granted my mistake.
     C F C 
Yet I could not be further from you now,
      Am F G 
With both feet on the ground. 
            C G C 
But in the dreamtime souls take flight, 
     F C G C 
And I am closer to you now.
 C G C F C Am Dm G 
Mountains crumble forests vanish, seeds awakened by the fire,
 C G C F C Am G C    
Water air and the earth have born them and I can feel my own ones near.
     C F C 
Yet I could not be further from you now,
      Am F G 
With both feet on the ground. 
            C G C 
But in the dreamtime souls take flight, 
     F C G C 
And I am closer to you now.
 C G C F C Am Dm G 
Flames are dancing in the fire, timeless songs are on the air,
 C G C F C Am G C 
In the wilderness they’re crying, but there’s laughter everywhere.
     C F C 
Yet I could not be further from you now,
      Am F G 
With both feet on the ground. 
            C G C 
But in the dreamtime souls take flight, 
     F C G C 
And I am closer to you now.

At Your Name Yahweh Yahweh Chords – Phil Wickham V4

 I loved this tab and I just wanted to re-enter it with some slight revisions. I made
sure some of the Chords were held for the right amount of time at certain times and added
the order of the studio version of the song. If you find any mistakes, don't hesitate to
let me know. Email is pbdude01904. Thanks and God Bless!




(Capo2)

Verse1:
         G C 
At Your Name, the mountains shake and crumble
         G C 
At Your Name, the oceans roar and tumble
            D Em 
At Your Name, angles will bow the earth will
    C 
rejoice
                   D 
Your people cry out

Chorus:
 Gsus G 
Lord of all the earth

we shout Your Name, shout Your Name
 Em 
Filling up the skies

With endless praise, endless praise
 D 
Yahweh, Yahweh
   C (at ending, hold going into 2nd Chorus)
We love to shout Your Name
       G 
Oh Lord

Verse2:
         G C 
At Your Name, the morning breaks in glory
         G C 
At Your Name, creation sings Your story
            D Em C 
At Your Name, angles will bow the earth will rejoice
                   D 
Your people cry out

Chorus

Bridge:
          D 
There is no one like our God
         Em C 
We will praise You, praise You
 D 
There is no one like our God
         G 
We will sing, we will sing!
(2X)


Bridge 2:
          D 
There is no one like our God
         Em C 
We will praise You, praise You
 D 
Jesus You are God
          C D Em D 
We will sing!


Chorus x2

Instrumental:
 Gsus  /  G  /  Em 
(Same chords & rhythm as the Chorus)

Tag:
 D 
Yahweh, Yahweh
    C 
We love to shout Your Name
       G 
Oh Lord


Order:
V1,  C , V2,  C ,  B ,  B ,  B2 ,  C ,
 C , I, T

Believer Chords – Audio Adrenaline

 "Believer" by Audio Adrenaline
{ Sadie}

           C Em Am F 
I want to live this live unsafe, unsure, but not afraid
 C Em 
What I want is to give all I got somehow
 Am F 
Giving up letting go of control right now
            C Em 
'Cause I'm already out here, blind but I can see
    Am F 
I see the way You're moving, God how I believe that

       Am F C 
      I can push back the mountains, can stand on the waves
                             G               ( E )
      I can see through the darkness, I'll hold up the flame
       Am F C 
      Take me to the ocean I want to go deeper
               G Ab F 
      I'm not afraid no, I'm a believer

          C Em Am F 
And so I lose this life to find my way and come alive
 C Em 
They can try to deny what's inside of me
              Am F 
But there is more, can't ignore all the things unseen

Oh I believe I can walk on water with You, Lord
            C Em 
'Cause I'm already out here, blind but I can see
    Am F 
I see the way You're moving, God how I believe that

       Am F C 
      I can push back the mountains, can stand on the waves
                             G              ( E )
      I can see through the darkness, I'll hold up the flame
       Am F C 
      Take me to the ocean I want to go deeper
               G Ab F 
      I'm not afraid no, I'm a believer

 C 
When I walk through the valley of the shadows
 F                        ( Am )
When I'm trapped in the middle of the battle
 Am F 
I will trust in You

 C 
'Cause trouble comes, but you never let it take me
 Dm 
I hold fast 'cause I know that You will save me
 Am F 
I will trust in You, I will trust in You

 Am F C 
Oh here I stand all alone waiting on you, Lord
 G Am 
Waiting on You

       Am F C 
      I can push back the mountains, can stand on the waves
                             G              ( E )
      I can see through the darkness, I'll hold up the flame
       Am F C 
      Take me to the ocean I want to go deeper
               G Ab F 
      I'm not afraid no, I'm a believer

When These Mountains Were The Seashore Chords – Hawksley Workman

 When These Mountains Were The Seashore : - Hawksley Workman
Jade Evoy

            G 
when these mountains were the seashore
            C Am 
when this desert was the ocean floor
          G Em 
we would swim beneath the star filled sky
         C G D G 
we were lovely fish alone in the night

before the cities met the heavens
i mean way, way, way back before then
we would sing as if it were a prayer
we were lovely fish who dreamed to dare

CHORUS
 C G D G 
before clocks kept track of the time
      C G D G 
when day lead gracefully into the night
 C G C Em 
before two simple fish who dreamed to fly
 C D Em D G  
created their sadness and new reasons to cry

when these mountains were the seashore
when this desert was the ocean floor
you and i were not born yet
it's too long ago now even to forget

when the blue sky found it's courage
to love and raise and nourish
back when life was simply meant to be
our love and care alone in the sea

CHORUS
before clocks kept track of the time
when day lead gracefully into the night
before two fish that dreamed to fly
got suspicious of a miracle
and asked themselves why

when we looked up through the water
at time and space and wondered
what it might be like to live up there
to leave our fins and gills for the air

CHORUS
before clocks kept track of the time
before the poems began to rhyme
before two simple fish that learned to cry
got suspicious of their love and asked each other why

Ballad Chords – Molly Drake

 Molly Drake- http://www.squirrelthing.com/artists/molly-drake

This is a half step down from the album version, because the day i figured it out youtube
was being weird and playing a half step down. maybe someday i will change it. 
Figured out on a piano. 


if you can see the strong and wearied starlight
 Eb G# Bb 

riding on mountains of the night astride
 Cm G# Bb 

and as you stand alone within the breathing darkness 
 Cm D Gm Cm 

ill be at your side
        Bb F  

if you can look
 Eb 
                                     
on this unchanging sunlight
       G# Bb 

one second fully when the day is new
 Cm G# Bb 

and as the burning coin dazzles beneath your eyelids
 Cm D Gm Cm 

i shall look at you
          Bb F 

                   

and if you can run
 Eb Cm 

where wind may beat about you
        Gm Bb 

out on the hill where shadows race
 Cm F G 

touching grass, touching trees
 Gm Eb Dm Cm 

and the edge of water
 Cm 

i shall touch 
 F                   

your face
      Bb 



though all the lands of heaven and earth divide us
 Eb G# Bb 

though distance is a dark unbroken terror (?)
 Cm G# Bb 

if you can walk within the same remembered music
 Cm Gm Cm Gm 

we can walk, we can walk
         Cm F   

together
 Eb

Lake Skaneateles Chords – The Milk Carton Kids

 Intro:
|  Bb  |  Bb/F  |  Bb  |  Ab  |
|  Eb  |  Eb/A# |  Bb  | Bb/F |        Well you'll get it, just switch bass notes 
|  Eb  |  Eb/A# |                  between your  E  snare and  A  snare 

 Ab  
Hush'd now august 
 Bb  
Heat in the air 
 Eb  
We’re free and now clear 

 Ab  
The Russian's upon us 
 Bb 
To greet without care 
 Eb 
Our innocence 

 Cm 
On the side of the road 
 Ab 
A dandelion mine 
 Eb 
Explodes in a cheer 

 Ab 
Lake Skaneateles 
 Bb 
Deep in the heart 
 Eb 
Of the echoes I hear 

 Ab Eb 
And it's you 
 Ab Bb 
Only you 
 Eb 
Who takes my breath away 

|  Bb  |  Eb  |  Bb  |  Eb  |

 Ab  
Be still Puget Sound 
 Bb 
The mountains are out 
 Eb 
The wave is in your hair 

 Ab 
I've abandoned my pride 
 Bb 
Cast off with a sigh 
 Eb 
And hardly a care 

 Cm 
I can dance all alone 
 Ab 
To the hush of this song 
 Eb 
And swoon unaware 

 Ab 
For my silence is yours 
 Bb 
My breath is a fort 
 Eb 
And i'm holding it there 

 Ab Eb 
And it's you 
 Ab Bb 
Only you 
 Eb 
Who takes my breath away 

 Ab Bb 
Only you 
 Eb 
Who takes my breath away 

All I Want Is You Chords – Barry Louis Polisar V6

 G C G      
If i was a flower growing wild and free
 G D G 
All i'd want is you to be my sweet honey bee.
 G C G 
And if i was a tree growing tall and greeen
 G D G 
All i'd want is you to shade me and be my leaves
 G C G              
If i was a flower growing wild and free
 G D G 
All i'd want is you to be my sweet honey bee.
 G C G 
And if i was a tree growing tall and greeen
 G D G 
All i'd want is you to shade me and be my leaves
 G C G 
All i want is you, will you be my bride
 G D G 
Take me by the hand and stand by my side
 G C G 
All i want is you, will you stay with me?
 G D G 
Hold me in your arms and sway me like the sea.
 G C G 
If you were a river in the mountains tall,
 G D G 
The rumble of your water would be my call.
 G C G 
If you were the winter, i know i'd be the snow
 G D G 
Just as long as you were with me, let the cold winds blow
 G C G 
All i want is you, will you be my bride
 G D G 
Take me by the hand and stand by my side
 G C G 
All i want is you, will you stay with me?
 G D G 
Hold me in your arms and sway me like the sea.
 G C G 
If you were a wink, i'd be a nod
 G D G 
If you were a seed, well i'd be a pod.
 G C G 
If you were the floor, i'd wanna be the rug
 G D G 
And if you were a kiss, i know i'd be a hug
 G C G 
All i want is you, will you be my bride
 G D G 
Take me by the hand and stand by my side
 G C G 
All i want is you, will you stay with me?
 G D G 
Hold me in your arms and sway me like the sea.
 G C G 
If you were the wood, i'd be the fire.
 G D G 
If you were the love, i'd be the desire.
 G C G 
If you were a castle, i'd be your moat,
 G D G 
And if you were an ocean, i'd learn to float.
 G C G 
All i want is you, will you be my bride
 G D G 
Take me by the hand and stand by my side
 G C G 
All i want is you, will you stay with me?
 G D G 
Hold me in your arms and sway me like the sea.

Psalm 46 Chords – Jenny And Tyler

 Int:  B Bsus4 B E F# B 
the LORD* is my refuge and strength
         E G#m F# 
therefore i will not be afraid
                 E B G#m F# E 
though the mountains give way and fall into the sea,
        F# B Bsus4 B 
He will come and rescue me


the LORD* comes to me at break of day
He reaches down to guide me in His way
though the oceans roar in this dark and stormy sea
He will come and rescue me


        E B2 B 
 halleluYah, He is with me
       E G#m F# 
halleluYah, we cannot be moved
       E D# G#m 
halleluYah, He is with me
       E F# B Bsus4 B Bsus4 B 
halleluYah, I rest secure


be still and know that He is God
He will be exalted over all
come and behold, His strength and majesty
yet He will come and rescue me

Symphony Chords – Chris Tomlin V2

 Standard Tuning

Verse 1

 Em C 
Shining wonders, fields of splendor
           G D 
How they sing Your symphony
        Em C 
The deepest oceans, rising mountains
           G D 
How they sing Your symphony


Chorus 1

           C D 
Let the earth fear the Lord
               C D 
And all the people of the world
          C G D C G D 
Stand in awe, stand in awe


Verse 2

      Em C 
My heart's ovation, Yours forever
         G D 
I will sing, sing Your praise
       Em C 
Let every nation under heaven
             G D 
Shout Your name, sing Your praise


Chorus 2

       Am7 G/B D 
In symphony with all created things
  Am7 G/B D 
Sing the song that we were made to sing
             C G D C G D 
We stand in awe, we stand in awe


Bridge

  C Em 
All the angels, all the heavens
  D G/B C 
Every people, every nation
  Em D 
Crying out to You
  C Em 
In the skies and in the oceans
  D G/B C 
Everything that's living, breathing
  Em D 
A symphony to You
   C Em 
There will be no greater song
          D G/B C 
In the heights above or the earth below
   Em D 
Jesus, all for You

I Gotta Start Somewhere Chords – Rhonda Vincent

 I can't believe nobody has tabbed any Rhonda Vincent yet! She is amazing, and this 
song is beautiful. I did this by ear, so if there are any mistakes, feel free to 
correct them! Enjoy!

Rhonda Vincent official website: http://www.rhondavincent.com/

CAPO 1

Intro:  C F C F Em C 
  I spent some time in Carolina
 Em C G 
  Thought those mountains out there just might do the trick
 Am C 
Two weeks of sunsets took my breath
 Am C G 
But I still remember what I went there to forget

             C 
I'm lookin' for a place
            G 
To turn my heart around
             Am 
Where I can hear your name
         F 
Without breaking down
            C 
What I was lookin' for
               G 
Wasn't in the mountain air
                  Am C 
But I gotta start somewhere

 Em C 
  So I'm gonna take a chance this evening
 Em C G 
  On someone who just might sweep me off my feet
 Am C 
He holds me close, I close my eyes
 Am C G 
I see your face, and I realize that I'm

               C 
Still lookin' for a place
            G 
To turn my heart around
             Am 
Where I can see your face
         F 
Without breaking down
         C 
Dancing in his arms
                   G 
I didn't find the answer there
                   C 
But I gotta start somewhere

 G C 
 Thought I could drown your memory in a glass
 G Am 
Thought time might fix the way I feel
 F 
 But after all I've tried I'm still

(KEY CHANGE)

         D 
Lookin' for a place
            A 
To turn my heart around
             Bm 
Where I can hear your name
         G 
Without breaking down
                  D 
Tonight I'll get on my knees
              A 
Pray to find healing there
                     Bm G 
Lord, I gotta start somewhere
(NO CHORD)            D A 
I've gotta start somewhere

Outro:  Bm G A D

She Lit A Fire Tabs by Lord Huron

 -------------------------------------------------------------------------------
                             She Lite A Fire - Lord Huron
-------------------------------------------------------------------------------
Tabbed by: Synchery

Tuning: Standard

Song is best played with 3 guitars, playing bass, patterns and strumming C.

Verses are C, listen to song for pattern.

Intro Pattern:
e|-------------------------------|
B|-3-3/5\1-1/3\1/3\1/5\1---------|
G|-------------------------------|
D|-------------------------------|
A|-------------------------------|
E|-------------------------------|


Verse Bass Pattern starts at first "She lit a fire":
e|-------------------------------|
B|-------------------------------|
G|-------------------------------|
D|-------------------------------|
A|-----3---0---------------------|
E|-0-----------1---0---3-4-5---1-|

Bridge Bass
e|--------------------------------------|
B|--------------------------------------|
G|--------------------------------------|
D|--------------------------------------|
A|--(3)-(3)------------(3)-(3)-----(3)--|
E|-1---5---3---8--3---1---5---3-3-4-5---| (There is a low C here but that requires tuning E>C


C
I've been through the desert
And I've been across the sea
I've been walking through the mountains
I've wandered through the trees
For her
C 
I have been trying to find her
Want to give what I got
She lit a fire
But now she's in my every thought
C 
Where, could that girl have gone
Where, I've wandered far
Where, could that girl have gone
She left no trail but I cannot fail
I will find her
C 
She lit a fire
But now she's in my every thought
She lit a fire
But now she's in my every thought
C 
Where, could that girl have gone
Where, I've wandered far
Where, could that girl have gone
She left no trace but I know her face
I will find her

Bridge:
F Am G C x4
F           Am              G   
When last I saw her she was dancing all alone
F          Am                    G     Am
Perhaps my chance was then, I'll never know
F               Am                   G                C
I'll search the world until there's no place left to go
F          Am                G    Am
And if she leaves it, I will fo---llow
           G    C
Yes I will fo---llow
C 
She lit a fire
But now she's in my every thought
She lit a fire
But now she's in my every thought
C 
I've been through the desert
And I've been across the sea
I've been walking through the mountains
I've wandered through the trees
For her
C 
I have been trying to find her
Want to give what I got
She lit a fire
But now she's in my every thought

Speak Life Chords – Tobymac V2

 G Em 
Some days, life feels perfect

     C Em 
Other days, it just ain't working

     G G C C            
The Good, the Bad, the right the wrong,

     Em A 
And everything in between

                G C 
Though it's crazy, amazing

 Em D 
We can turn our heart through the words we say

 G C 
Mountains Crumble

 Em D 
With every syllable

 C E  (HOLD)
Hope can live or die

(CHORUS)

 G C          
Speak Life, Speak Life

 Em D 
To the deadest, darkest night!

 G C 
Speak Life Speak Life

 Em D 
When the sun won't shine and you don't know why!

 C Em 
Look into the eyes of the broken hearted

 D 
Watch the come alive 

 Em C        
As soon as you speak hope,

 D G  (HOLD)
you speak love, you speak.

 G Em D 
You speak life! woah o o o o!

 G Em D 
You speak LIFE woah o o o o!

 Em C 
Some Days, the tongue gets twisted

D              G                  Em (HOLD, maybe shake neck)
Other days, my thoughts just fall apart.

 C D Em G 
I do, I don't, I will, I wont,


It's like I'm drowning in the deep!

 G 
Well it's crazy!

 C 
To imagine,

 Em D G C 
Words from my lips as the arms of compassion.

 Em D G C 
Mountains crumble with every syllable,

 G D 
Hope can live or die!

(CHORUS) 

 Em C G 
Lift your head a little higher,

 C G 
Spread the love like fire! 

            Em 
Hope will fall like rain 

        D G C            
When you speak life with the words you say!

 Em C 
Raise your thoughts a little higher,

 Em G C 
Spread the love like fire,

 Em D G C 
Hope will fall like rain when you speak life with the words you say.

  Em C G 
Raise your thoughts a little higher

            D G 
Use your words to inspire

 Em 
Joy will fall like rain 

 D C 
When you speak life with the words you say!

 D G Em 
Lift your head a little higher,

 C D 
Spread the love like fire,


           G 
Hope will fall like rain,


       Em D G 
When you speak life with the words you say.

(CHORUS)
           G Em C 
You speak LI-FE oh-oh-oh-oh-oh (x4)


Someday life feels perfect