Tag: Moving


Im Moving On Tabs – Hank Snow

 I'M MOVING ON
As recorded by Hank Snow
(From the 1950 Album COUNTRY CLASSICS)
Words and Music by Hank Snow
 Slowhand
Gtr I (E A D G B E) - 'Acoustic Guitar 1'
Gtr II (E A D G B E) - 'Acoustic Guitar 2'
Gtr III (E A D G B E) - 'Acoustic Guitar 3'
   Intro
    Q=194(8=s8)
    D
   4/4
    Gtr I
    Q  E E E E E E   Q  E E E E E E   Q  E E E E E E   Q  E E E E E E
||-----2-2-2-2-2-2-|----2-2-2-2-2-2-|----2-2-2-2-2-2-|----2-2-2-2-2-2---||
||o----3-3-3-3-3-3-|----3-3-3-3-3-3-|----3-3-3-3-3-3-|----3-3-3-3-3-3--o||
||-----2-2-2-2-2-2-|----2-2-2-2-2-2-|----2-2-2-2-2-2-|----2-2-2-2-2-2---||
||--0--------------|-0--------------|-0--------------|-0----------------||
||o----------------|----------------|----------------|-----------------o||
||-----------------|----------------|----------------|------------------||
   1st - 7th Verses
    $
    $$
    D
    Q  E E E E E E   Q  E E E E E E
||-----2-2-2-2-2-2-|----2-2-2-2-2-2-|
||o----3-3-3-3-3-3-|----3-3-3-3-3-3-|
||-----2-2-2-2-2-2-|----2-2-2-2-2-2-|
||--0--------------|-0--------------|
||o----------------|----------------|
||-----------------|----------------|
                  2/4       4/4
  Q  E E E E E E   E E E E   Q  E E E E E E
|----2-2-2-2-2-2-|-2-2-2-2-|----2-2-2-2-2-2-||
|----3-3-3-3-3-3-|-3-3-3-3-|----3-3-3-3-3-3-||
|----2-2-2-2-2-2-|-2-2-2-2-|----2-2-2-2-2-2-||
|-0--------------|---------|-0--------------||
|----------------|---------|----------------||
|----------------|---------|----------------||
 Chorus
  G                                 D
  Q  E E E E E E   Q  E E E E E E   Q  E E E E E E
|----3-3-3-3-3-3-|----3-3-3-3-3-3-|----2-2-2-2-2-2-|
|----0-0-0-0-0-0-|----0-0-0-0-0-0-|----3-3-3-3-3-3-|
|----0-0-0-0-0-0-|----0-0-0-0-0-0-|----2-2-2-2-2-2-|
|----0-0-0-0-0-0-|----0-0-0-0-0-0-|-0--------------|
|----------------|----------------|----------------|
|-3--------------|-3--------------|----------------|
                   A
  Q  E E E E E E   Q  E E E E E E
|----2-2-2-2-2-2-|----0-0-0-0-0-0---|
|----3-3-3-3-3-3-|----2-2-2-2-2-2---|
|----2-2-2-2-2-2-|----2-2-2-2-2-2---|
|-0--------------|----2-2-2-2-2-2---|
|----------------|-0----------------|
|----------------|------------------|
                                To Dbl. Coda           To Coda
                             D
 2/4       4/4
  E E E E   Q  E E E E E E   Q  E E E E E E    Q  E E E E E E
|-0-0-0-0-|----0-0-0-0-0-0-|----2-2-2-2-2-2--|----2-2-2-2-2-2----||
|-2-2-2-2-|----2-2-2-2-2-2-|----3-3-3-3-3-3--|----3-3-3-3-3-3---o||
|-2-2-2-2-|----2-2-2-2-2-2-|----2-2-2-2-2-2--|----2-2-2-2-2-2----||
|-2-2-2-2-|----2-2-2-2-2-2-|-0---------------|-0-----------------||
|---------|-0--------------|-----------------|------------------o||
|---------|----------------|-----------------|-------------------||
 Fiddle Solo
  D
  Q  E E E E E E   Q  E E E E E E   Q  E E E E E E   Q  E E E E E E
|----2-2-2-2-2-2-|----2-2-2-2-2-2-|----2-2-2-2-2-2-|----2-2-2-2-2-2--|
|----3-3-3-3-3-3-|----3-3-3-3-3-3-|----3-3-3-3-3-3-|----3-3-3-3-3-3--|
|----2-2-2-2-2-2-|----2-2-2-2-2-2-|----2-2-2-2-2-2-|----2-2-2-2-2-2--|
|-0--------------|-0--------------|-0--------------|-0---------------|
|----------------|----------------|----------------|-----------------|
|----------------|----------------|----------------|-----------------|
  G
 4/4              2/4       4/4
  Q  E E E E E E   E E E E   Q  E E E E E E
|----3-3-3-3-3-3-|-3-3-3-3-|----3-3-3-3-3-3-|
|----0-0-0-0-0-0-|-0-0-0-0-|----0-0-0-0-0-0-|
|----0-0-0-0-0-0-|-0-0-0-0-|----0-0-0-0-0-0-|
|----0-0-0-0-0-0-|-0-0-0-0-|----0-0-0-0-0-0-|
|----------------|---------|----------------|
|-3--------------|---------|-3--------------|
  D
  Q  E E E E E E   Q  E E E E E E
|----2-2-2-2-2-2-|----2-2-2-2-2-2---|
|----3-3-3-3-3-3-|----3-3-3-3-3-3---|
|----2-2-2-2-2-2-|----2-2-2-2-2-2---|
|-0--------------|-0----------------|
|----------------|------------------|
|----------------|------------------|
                                                        D.S. al Coda

Where To Start intro Tabs by Newton Faulkner

 hi guys I'm Jordan :) this is my first ever tab I loved this song and found no tabs!!!
so had to work it by watching him live...
I have only figured out the intro and i guess its the chorus
but the bit after that his fingers are moving to quick for my eyes (dam eyes!)
tuning is (B F# C# F# G# C#)
intro:
C#|-0-------------------------------|   C#|-0------------------------------|
G#|--0--------0--0--0--0--0--0--0---|   G#|--0--------0--0--0--0--0--0--0--|
F#|---0h2p0---0--0--0--0--0--0--0---|   F#|---0h2p0---0--0--0--0--0--0--0--|
C#|-4-(slide)-2--2--2--2--2--2--2---|x3 C#|-4-(slide)-5--5--5--5--5--5--5--|
F#|-----------0--0--0--0--0--0--0---|   F#|----------(thumb slap base)-----|
B |-0--------(thumb slapping base)--|   B |-0------------------------------|
then the chorus: a couple of beats with the palm during this...
harmonics * [slap the strings with right hand for harmonics]
C#|----------------------|                         C#|-0------|
G#|------12*-------------|                         G#|--3-----|
F#|------12*-----5-5~4p0-|                         F#|---0----|
C#|------12*-------------|  x4 then that ends with C#|----2---|
F#|-0(LET RING)--5-5~4p0-|                         F#|-----0--|
B |------------4p0-------|                         B |------0-|
sorry i aint got the rest i wish i could figure it out i know where its based
but want to get it till its near 100% complete
anyway hope you guys do ok with this
and enjoy its a fun song :)
by Jordan reece

So Small chords – Boyce Avenue

 Band/Artist: Boyce Avenue
Title: So Small
Chords by: VALERA, CHARLIE EDSEL  AYUNON
Verse:
 Cm Ab
What you got if you aint got love
 Eb Bb
The kind that you just wanna give away
 Cm Ab
It's okay to open up
 Eb Bb
Go ahead and let the light shine through
 Cm Ab
I know it's hard on a rainy day
 Eb
You wanna shut the world out
 Bb Cm
And just be left alone
 Ab Eb Bb
Don't run out on your faith
Chorus:
 Ab Cm Bb
Sometimes that mountain you've been climbing
   Eb Ab Eb Bb
Is just a grain of sand
 Ab Cm Bb
What you've been out there searching for forever,
 Eb Ab Eb Bb
Is in your hands
 Ab Eb Bb Cm
When you figure out love is all that matters, after all
               Ab Bb
It sure makes everything else
            Cm
Seem so small
Verse:
It's so easy to get lost inside
A problem that seems so big, at the time
It's like a river that's so wide
It swallows you whole
While you're sittin round thinking about what you can't change
And worryin' about all the wrong things
Time's flying by, moving so fast
You better make it count, cause you can't get it back
Chorus:
Sometimes that mountain you've been climbing
Is just a grain of sand
What you've been out there searching for forever
Is in your hands
Oh, When you figure out love is all that matters after all
It sure makes everything else
Chorus:
Sometimes that mountain you've been climbing
Is just a grain of sand
What you've been out there searching for forever
Is in your hands
Oh, When you figure out love is all that matters after all
It sure makes everything else
Oh it sure makes everything else
Seem so small

The River Rise chords – Mark Lanegan

 Mark lanegan - The River Rise
- HRISHABH BHARDWAJ
e------------|
b------------|
g------------|
d------------|          Repeat for the all the verses
a-0---2---33-|
e------------|
"The River Rise"
 C
Oh the river rise
 C
And it's a mile high
 C
Is this worth tryin'
 C
Is this worth tryin'
 C D F
Cause I could fall......
 C
Like a tear
 C
Well there's nothing else I can do
 C
When I'm not alone
 C
Nothings beside me
 C
What one eye sees
 C
The other's blind in
 C D F
Well I could fall.....................
 C
As if I was young
 C
With a lifetime to think of you
Fire one for losing
And two for hiding
Keep river moving
Movin' right by me
I could fall
And there's nothin' else I can do
Ah the river rise
And it's a mile high
Has this world turned
Has this world tried
Cause I could fall
Like a tear
well there's nothin' else I can do
Up on the river rise
She's a mile high

Moving To New York Tabs by The Wombats V2

 -------------------------------------------------------------------------------
                             MOVING TO NEW YORK - The Wombats
-------------------------------------------------------------------------------
: Josh B.
People mostly have problems with getting the chord voicings and picking patterns
right in this song.
Other than that, it's pretty easy to play.
So to keep things simple, I'm leaving the strumming pattern out.
I'm sure you can figure it out for yourself :)
Intro/Chorus
(chords)
-------------|
-13-----0-12-|
-10-12-12--0-|
--0-10-10-12-|
-----0-12-10-|
-------------|
Verse
"And I don't know why..."
-5-12-12-15-|
-6-13-13-15-|
-7-14-14-14-|
------------|
------------|
------------|
"It's therapeutic, somehow..."
--------5-----------5-----------12----------12----------12-------12----------15-----------|
-----6-----6-----6-----6-----13----13----13----13----13----13-------------------------15\-|
-/7-----------7----------/14----------14----------14----------14----13-12-------12-12-----|
------------------------------------------------------------------------------------------|
------------------------------------------------------------------------------------------|
------------------------------------------------------------------------------------------|
After the chorus
(chord)
---
---
---
-3-
-3-
-1-
Before the last chorus
--------5-----------5-----------12----------12----------12-------12----------15-----------------|
-----6-----6-----6-----6-----13----13----13----13----13----13-------------------------15----13\-|
-/7-----------7----------/14----------14----------14----------14----13-12-------12-12----12-----|
------------------------------------------------------------------------------------------------|
------------------------------------------------------------------------------------------------|
------------------------------------------------------------------------------------------------|
--------5-----------5-----------12----------12----------12-------12----------15-----------|
-----6-----6-----6-----6-----13----13----13----13----13----13-------------------------15\-|
-/7-----------7----------/14----------14----------14----------14----13-12-------12-12-----|
------------------------------------------------------------------------------------------|
------------------------------------------------------------------------------------------|
------------------------------------------------------------------------------------------|
(chords)
----------------|
----------------|
-10-------------|
-0--10-10-10-9--|
-0--0--12-11-10-|
----------------|
Outro
(chords)
-1-3-
-1-3-
-2-4-
-3-5-
-3-5-
-1-3-
and that very last bit...
(chords)
-3-2-1-|
-3-2-1-|
-4-3-2-|
-5-4-3-|
-5-4-3-|
-3-2-1-|

Moving Forward chords – Ricardo Sanchez V2

 CHORUS
                A G
I'm not going back, I'm moving ahead
                F#m G Em
I'm here to declare to you that my past is over
     A Em
In You all things are made new
                 F#m
I surrender my life to Christ
        G G D D F#m E/G#
I'm moving, moving forward
VERSE
 A G A
What a moment You have brought me to
           F#m G Em
Such a freedom I have found in You
              G A
You're the healer that makes all things new
 A F#m G
Yeah, yeah , yeahh
CHORUS
VERSE
 A G A
You have risen with all power in Your hands
            F#m G Em A
You have given me a second chance
       A G
Hallelujah, Hallelujah
   A F#m Em A F#m G
Yeah, yeah, yeahh, yeah yeah yeahh
CHORUS
BRIDGE
 D
You make all things new and
 F#m
You make all things new and
 D A
I will follow You forward

The Cascade Tabs by Moving Mountains

 -------------------------------------------------------------------------------
                             Moving Mountains - The Cascade
-------------------------------------------------------------------------------
: WantsLesPaul
Tuning: Tune to Open D, leave the high e alone.
I'm not 100% sure about this, but it sounds really close. I will post a Guitar Pro
5 tab of the whole song if I ever finish it :p
Intro:Gregory Dunn
e|-------------------------------------------------------------------------|
A|--------0-----------------0-----------------0-----------------0----------|
F#|--------------0-----------------0-----------------0-----------------0---|
D|-----11---11-----------11---11-----------12---12-----------12---12-------|
A|---9---------9-------9---------9-------9---------9-------9---------9-----|
D|-0-----------------0-----------------9-----------------9-----------------|
e|-------------------------------------------------------------------|
A|-------0-----------------0---------------0---------------0---------|
F#|--------------0---------------0---------------0---------------0---|
D|-----7----7------------6---6-----------7---7-----------7---7-------|
A|---4--------4--------4-------4-------9-------9-------9-------9-----|
D|-4-----------------4---------------0---------------0---------------|
Intro:Frank Graniero
e|-------------------------------------------------------------------------------------|
A|-------12----------12----------12----------12--------12-------12-------12-------12---|
F#|10-10----10-10-10----10-10-10----10-10-10----10-8-8----8-8-8----8-8-8----8-8-8----8-|
D|-------------------------------------------------------------------------------------|
A|-------------------------------------------------------------------------------------|
D|-------------------------------------------------------------------------------------|
e|-------------------------------------------------------------------------|
A|-----12-------12-------12-------12-------12-------12-------12-------12---|Live he sometimes plays
F#|7-7----7-7-7----7-7-7----7-7-7----7-8-8----8-8-8----8-8-8----8-8-8----8-|  this string open
D|-------------------------------------------------------------------------|
A|-------------------------------------------------------------------------|and throws in some
D|-------------------------------------------------------------------------| open e's as well
Verse:Gregory Dunn
e|-----0---------------0---------------0---------------0-----------|
A|-------------0---------------0---------------0---------------0---|
F#|----------------------------------------------------------------|
D|-2-2---2-2-2---2-2-2---2-2-2---2-4-4---4-4-4---4-4-4---4-4-4---4-|
A|-----------------------------------------------------------------|
D|-----------------------------------------------------------------|
e|-----0---------------0---------------0---------------0-----------|
A|-------------0---------------0---------------0---------------0---|
F#|----------------------------------------------------------------|
D|-2-2---2-2-2---2-2-2---2-2-2---2-0-0---0-0-0---0-0-0---0-0-0---0-|
A|-----------------------------------------------------------------|
D|-----------------------------------------------------------------|
Verse:Frank Graniero
e|---------0---------------0---------------0---------------0-------|
A|-----0---------------0---------------0---------------0-----------|
F#|--7-------7---7---7-------7---7---7-------7---7---7-------7---7-|
D|-------9-----9---------9-----9---------9-----9---------9-----9---|
A|-7---------------7---------------9---------------9---------------|
D|-----------------------------------------------------------------|
e|---------0---------------0---------------0---------------0-------|
A|-----0---------------0---------------0---------------0-----------|
F#|--7-------7---7---7-------7---7---7-------7---7---7-------7---7-|
D|--

God Is Moving chords – Praise And Worship

 Dm
Verse !:                Holy Spirit touch your people
                 F
                Teach them the ways of God
                 Dm
                And as we live as Jesus did
                 F
                Just be honored and lifted up
                 Am D
Pre-Chorus:     There's a stirring in the spirit
                 F G
                There's an urgency in this hour
                 Am G
                We your children must obey
                 F F
                Can you hear the footsteps of God?
                 C Dm C/E F
Chorus:         God is moving, God is moving
                          Am G F
                Can you hear the sound of revival
                 Dm
Verse 2:        As we praise you, as we sing
                 F
                Draw near to us oh God
                 Dm
                As we cry out for the nations
                 F
                Pour out revival in our land

Moving Foward chords – Israel Houghton V3

 Moving Forward  - Israel Houghton
Verse
 A G
What a moment You have brought me to.
 A G
Such a freedom I have found in You.
 A G
You're the healer who makes all things new.
 A F#m G
Yeah,      yeah,           yeah.
Chorus
                      A G
I'm not going back, I'm moving ahead.
               A F#m G
I'm here to declare to you my past is over.
       A G
In You all things are made new. Surrendered
         A F#m G
My Life to Christ. I'm Moving, Moving
  D E F#m E
Forward.
 Fm E
oh oh oh....
Verse
 A G
You have risen with all power in Your hand.
 A G
You have given me a second chance.
 A G
 Hallelujah, hallelujah!
 A F#m G
Yeah,      yeah,         yeah. (2x)
Chorus
Bridge
       D E F#m E
My Life to Christ. I'm Moving, Moving Forward.
 D E F#m E
You make all Things new.
 D E F#m E
Yes, you make all things new and
 D E F#m E D A A E A E
 I will Follow You     forward.

Art Of Moving On Tabs by Heffron Drive

 ~[Thanks, y'all! Have fun with this one! Make sure to check out my other tabs, and
check out my YouTube (Jaila Urban). Thanks!!]~
Capo: 1
Tuning: Standard
Intro:
~[Rough estimate.]~
~[Repeat throughout verses, pre-chorus' and the bridge:]~
e----3-------3------------------------------|
B-1h3-1-1-1h3-------------------------------|
G-------------------------------------------|
D-------------------------------------------|
A-------------------------------------------|
E-------------------------------------------|
~[Palm-mute the verses and the pre-chorus'.]~
~[Crescendo means to gradually get louder]~
~[Crescendo, then stop right before the next chord after the pre-chorus', bridge,
and in the outro.]~
~[In the chorus, stop playing at "keeps"; at "all", you continue.]~
Verse 1:
C
I don't remember what we might have said
Em
  And I didn't bother to write down, anyhow
C
  All of the memories spun like your web
Em
  And I can't get out, get out, get out
Pre-Chorus 1:
Em
I gave everything I got not to lose you
Em
We chose to say goodbye, but I choose you
Em
I choose you
Chorus:
G                                              Am
I keep building walls, but you're always on my mind
Am
Won't let them fall down, I'm tired
       Em                        Am
Can we give up the art of moving on?
Am
On, on
                      C
'Cause it keeps me up all night, all night-ooh
            Em
Keeps me up all night, all night-ooh
Ooh-ooh
Verse 2:
C
Feels like I'm stuck here, frozen in time
Em
  If it wasn't real, then I wonder what really is
C
  If there's a world where you could be mine
Em
  That's where I'd live, I'd live, I'd live
Pre-Chorus 2:
Em
I gave everything I got not to lose you
Em
Not to lose you
Chorus:
G                                              Am
I keep building walls, but you're always on my mind
Am
Won't let them fall down, I'm tired
       Em                        Am
Can we give up the art of moving on?
Am
On, on
                      C
'Cause it keeps me up all night, all night-ooh
            Em
Keeps me up all night, all night-ooh
Ooh-ooh
Bridge:
Em
I gave everything I got not to lose you
Em
Not to lose you
Em
We chose to say goodbye, but I choose you
Em
I choose you
Chorus:
G                                              Am
I keep building walls, but you're always on my mind
Am
Won't let them fall down, I'm tired
       Em                        Am
Can we give up the art of moving on?
Am
On, on
                      C
'Cause it keeps me up all night, all night-ooh
            Em
Keeps me up all night, all night-ooh
               C
It keeps me up all night, all night-ooh
            Em
Keeps me up all night, all night-ooh
Ooh-ooh
Outro:
Em
Page 1 of 6012345...102030...Last »