Tag: museum

Liturgy Tabs – Jordaan Mason And The Horse Museum

 These are the notes played throughout the song:

E|-----------------------------------------------------------------|
B|-----------------------------------------------------------------|
G|-------5-------5-------5-------5-------5-------5-------5-------5-|
D|---5-------5-------5-------5-------6-------6-------6-------6-----|
A|-6---6---6---6---6---6---6---6---6---6---6---6---6---6---6---6---|
E|-----------------------------------------------------------------|

Here are the chords strummed around the one minute mark:

C#      G#        C#
and you became bones
C#      G#        C#
and you became bones
C#      G#        C#
and you became bones

Lyrics:

you blunt horses. 
you casper ghosts. 
your dust jackets, creased sheets cold. 
auburn wool pockets carve blossomed boats. 
simple sandpaper. cobblered coats. 
and you became bones.
and my brothers will burst into baskets of orange fruit; 
my sister will tame all the beasts she holds high; 
my mother will break bricks to weather her windows; 
my father will worry until he goes blind; 
and we all will sleep at the bottom of the river. 
i’ll sing sonata, bring the frost-bite, bury bones, 
i’ll call niagara, down the house lights, and stay home. 
stop your novels: catch a cold, dig your gold.

1990 Was A Long Year And We Are All Out Of Hot Water Now Tabs by Jordaan Mason And The Horse Museum

 Capo 2nd fret


E||------------------3-|--------------------3-|
B||---------1----------|---------1------------|
G||----0--------0------|----0----------0------|
D||--3---3----3---3----|--3---3------3----3---|
A||--------------------|----------------------|
E||--------------------|----------------------|

E||------------------3-|--------------------3-|
B||---------1----------|---------1------------|
G||----0---------0-----|----0-----------0-----|
D||--2---2-----2---2---|--2---2-------2---2---|
A||--------------------|----------------------|
E||--------------------|----------------------|

There are slight variations in the fingerpicking as the song progresses but this is the main motif

Racehorse Get Married Tabs by Jordaan Mason And The Horse Museum

 Just one progression all the way through, strum the open chord shapes in the lulls 
(listen to the song for changes in the dynamics). Capo 3rd fret.


E||--------------------|---------------------|
B||--------0--------0--|--------0---------0--|
G||--------------------|---------------------|
D||----2--------2------|----2---------2------|
A||--3---3----3---3----|--3---3-----3---3----|
E||--------------------|---------------------|

E||--------------------|---------------------|
B||--------0--------0--|--------0---------0--|
G||--------------------|---------------------|
D||----4--------4------|----4---------4------|
A||--5--5-----5---5----|--5---5-----5---5----|
E||--------------------|---------------------|