Tag: myself

Save Myself Piano Chords by Ed Sheeran

[VERSE]

G             D         Em                 C
I gave all my oxygen to people that could breath
   G           D             Em             C
I gave away my money and now we don't even speak
  G               D                    Em      D       C
I drove miles and miles, but would you do the same for me?
   G  D  G
Oh ho-o-onestly

G              D                 Em           C
Offered off my shoulder just for you to cry upon
G                 D             Em               C
Gave you constant shelter and a bed to keep you warm
G                D                  Em     D      C 
They gave me the heartache and in return I gave a song
         G     D    G
Its goes o-o-on and on 


[CHORUS]

C                 G             D               G
Life can get you down so I just numb the way it feels
  C               G                D                 Em
I drown it with a drink and out of date prescription pills
    C                  D                Em      D      C
And all the ones that love me they just left me on the shelf
           A7
My farewell
            Am7                     Am7 G/B C   D/F# G
So before I save someone else, I've got to save myself


[VERSE]
  
  G               D            Em             C
I gave you all my energy and I took away your pain
       G                D           Em         C
'Cause human beings are destined to radiate or dream
 G              D                      Em      D         C
What line do we stand upon 'cause from here it looks the same?
    G     D      G
And only scars remain


[CHORUS]

C                 G             D               G
Life can get you down so I just numb the way it feels
  C               G                D                 Em
I drown it with a drink and out of date prescription pills
    C                  D                Em      D      C
And all the ones that love me they just left me on the shelf
           A7
My farewell
            Am7                     Am7 G/B C   D/F# G
So before I save someone else, I've got to save myself


[BRIDGE]

         Em                  C
But if I don't, then I'll go back
                G
To where I'm rescuing a stranger
        D                                  Em
Just because they needed saving just like that
              C
Oh, I'm here again
            G
Between the devil and the danger
       D
But I guess it's just my nature
            C
My dad was wrong
                        D
'Cause I'm not like my mum
                   Em               D            C
'Cause she'd just smile and I'm complaining in a song
       A7
But it helps
            Am7                     Am7 G/B C   D/F# G
So before I save someone else, I've got to save myself


[CHORUS]

C                 G             D               G
Life can get you down so I just numb the way it feels
  C               G                D                 Em
I drown it with a drink and out of date prescription pills
    C                  D                Em      D      C
And all the ones that love me they just left me on the shelf
           A7
My farewell
            Am7                     Am7 G/B C   D/F# G
So before I save someone else, I've got to save myself
             Am7                      Am7 G/B C   D/F# G
And before I blame someone else, I've got to save myself
             Am7                     Am7 G/B C   D/F# G
And before I love someone else, I've got to love myself

Save Myself Piano Chords by Ed Sheeran

[Verse 1]
       Bb       F         Gm              Eb
I gave all my oxygen to people that could breath
    Bb          F            Gm             Eb
I gave away my money and now we don't even speak
  Bb               F                   Gm      F      Eb
I drove miles and miles, but would you do the same for me?
    Bb F  Bb
Oh, honestly?
Bb               F               Gm          Eb
Offered off my shoulder just for you to cry upon
Bb                 F             Gm              Eb
Gave you constant shelter and a bed to keep you warm
     Bb              F             Gm        F     Eb 
They gave me the heartache and in return I gave a song
        Bb F    Bb
Its goes on and on 

[Chorus]
Eb                 Bb             F             Gm
Life can get you down so I just numb the way it feels
  Eb               Bb                F                Gm
I drown it with a drink and out of date prescription pills
   Eb                    F               Gm      F      Eb
And all the ones that love me they just left me on the shelf
    C
My farewell
          Cm                      Cm   Bb F    Eb Bb
So before I save someone else, I've got to save myself

[Verse 2]  
  Bb               F            Gm            Eb
I gave you all my energy and I took away your pain
        Bb               F           Gm        Eb
'Cause human beings are destined to radiate or dream
 Bb              F                      Gm      F      Eb
What line do we stand upon 'cause from here it looks the same?
    Bb   F      Bb
And only scars remain

[Chorus]
Eb                 Bb             F             Gm
Life can get you down so I just numb the way it feels
  Eb               Bb                F                Gm
I drown it with a drink and out of date prescription pills
   Eb                    F               Gm      F      Eb
And all the ones that love me they just left me on the shelf
    C
My farewell
     F    Cm                    Cm    Bb Eb     F Bb
So before I save someone else, I've got to save myself

[Bridge]
        Gm
But if don't
             Eb
Then I'll go back
                Bb
To where I'm rescuing a stranger
        F                                  Gm
Just because they needed saving just like that
             Eb
Oh, I'm here again
              Bb
Between the devil and the danger
       F
But I guess it's just my nature
   Bb      Eb
My dad was wrong
                        F
'Cause I'm not like my mum
                   Gm              F             Eb
'Cause she'd just smile and I'm complaining in a song
        C
But it helps
    Bb        Cm
So before I save someone else
      Cm Bb Eb     F Bb
I've got to save myself

[Chorus]
Eb                 Bb             F             Gm
Life can get you down so I just numb the way it feels
  Eb               Bb                F                Gm
I drown it with a drink and out of date prescription pills
   Eb                    F               Gm      F      Eb
And all the ones that love me they just left me on the shelf
    C
My farewell
     F    Cm                    Cm    Bb Eb     F Bb
So before I save someone else, I've got to save myself
    Bb        Cm                  Cm    Bb Eb     F Bb
And before I blame someone else, I've got to save myself
     Bb       Cm                     Cm   Bb Eb   F      Bb
And before I love someone else, I've got to love myself

Cant Stop Myself From Loving You chords – Patty Loveless

 G D7 C G E7 
Raindrops fall from the sky teardrops fall from my eyes

 Am D7 G D7 
Can't stop myself from loving you

 G D7 C G E7 
Your heartaches found a home I walk these streets alone

 Am D7 G C G 
Can't stop myself from loving you


 D7 G 
I know I shouldn't waste my time in dreams of yesterday

          A7 D7 
But your memory's all that I have left since you've gone away

 G D7 C G E7 
No matter what I do my heart stays cold and blue

 Am D7 G C G 
Can't stop myself from loving you


 D7 G 
They say that time can heal a lonely heart that's broke in two

 A7 D7 
But time ran out on me the day you walked out of my world

 G D7 C G E7 
So let the teardrops fall the rain will hide them all

 Am D7 G E7 
Can't stop myself from loving you
 
 Am D7 G 
Can't stop myself from loving you

Give Myself A Party chords – Don Gibson

 Give Myself A Party:Don Gibson.
#5 US Country and #46 on BB Hot 100
on RCA Records in 1958.

INTRO:  G C D G 

#1.
 Em G C D 
I've got a lot of memories to last me 
                G 
the rest of my life.
 G C D 
So, if you don't want to love me, baby, 
                G 
that'll be all right.
 G C D 
I'm gonna take all the lovin' that I 
          G 
have for you.
 G C D 
Gonna take all the loneliness, sit right 
               G 
down with the blues.

CHORUS:
 G C 
I'm gonna give myself a party, and serve 
     G 
old memories.
 G Em A 
Give myself a party, think of how it used 
    D 
to be.
                  C G 
Remember all the happiness that we once knew.
 G Em D 
I'm gonna give myself a party, just me and 
     G C G 
the blues..(just me and the blues.)


INTERLUDE:  G C D G  

#2.
 Em G C D G 
A  few of your love letters, a photograph or two.
 G C D C 
A gift you gave on my birthday with words of, I 
      G 
love you.
 G C 
There's a lots of things to think about, when 
        D G 
you're happy, feeling blue.
 G C D 
So, I'm gonna take all the loneliness, sit right 
               G 
down with the blues.

CHORUS:
 G C 
I'm gonna give myself a party, and serve 
     G 
old memories.
 G Em A 
Give myself a party, think of how it used 
    D 
to be.
                  C G 
Remember all the happiness that we once knew.
 G Em D 
I'm gonna give myself a party, just me and 
     G C G 
the blues..(just me and the blues.)



A fifties smash from Kraziekhat.



I Just Need Myself chords – Ocean Colour Scene

 1.I just need myself - Ocean Colour Scene - North Atlantic Drift
-----------------------------------------
 Gdim7    320320
 E7       020100


Intro: 
 E7 C/D Gdim7 E7 C/D G E7 C/D Gdim7 E7 C/D G 

Verse 1:
 E7 C/D A7 G 
I'll die before I get to sleep
 E7 C/D A7 G 
When screaming shadows haunt my dreams
 E7 C/D A7 G   
I'm cold and soaking wet when daylight shows its face
 E7 C/D A G D A C/D A E 
This fear will always get in your way

Chorus
 E A 
And I can hear so much That I miss it everyday
     E A 
It finds me deep in love and deeper down the lane
 E A 
I don't know too much but I know what I want to say
         D B 
I Just Need Myself

 E7 C/D Gdim7 E7 C/D G 


Verse 2:

 E7 C/D A7 G 
Please leave me when you see me fall
 E7 C/D A7 G 
Oh please I have to climb that wall
 E7 C/D A7 G   
And from the top of it you can nearly see your face
 E7 C/D A G D A C/D A E  
But don't let this ever get in your way

Chorus
 E A 
And I can hear so much That I miss it everyday
     E A 
It finds me deep in love and deeper down the lane
 E A 
I don't know too much but I know what I want to say
         D B 
I Just Need Myself


Solo 
 E7 C/D Gdim7 E7 C/D G E7 C/D Gdim7 E7 C/D G 

Verse 3:
 E7 C/D A7 G 
I'm not going to walk on sinking sand
 E7 C/D A7 G 
I'll sail this day to higher land
 E7 C/D A7 G   
And when the sun is high, and I'll let my music say
 E7 C/D A G D A C/D A E  
These things will never get in your way



Chorus
 E A 
And I can hear so much That I miss it everyday
     E A 
It finds me deep in love and deeper down the lane
 E A 
I don't know too much but I know what I want to say
         D B 
I Just Need Myself


Solo 
Solo 
 E7 C/D Gdim7 E7 C/D G E7 C/D Gdim7 E7 C/D G D A E D A E D A E D A E 
--------------------
Raúl Galván ìĀbalos

Conversation With Dr Seussicide Tabs – I Hate Myself

 -------------------------------------------------------------------------------
             CONVERSATION WITH DR.SEUSSICIDE - I Hate Myself
-------------------------------------------------------------------------------

Tuning: Drop D

Verse:
e|------------------------------------------------------------------|
B|-------------------------3-------------------------------3---3----|
G|-----------------------2---2---2-----------------------2---2---2--| x2
D|---2---2---2---2---0---------0-----2---2---2---2---0--------------|
A|------------------------------------------------------------------|
D|-2---2---5---5---0---0-----------2---2---5---5---0---0------------|

Break:
e|----------------------------------------------------------------|
B|----------------------------------------------------------------|
G|-------------------------------[5]------------------------------|
D|-2-------/5-------0-------[5]--------2-------/5-------0---------|
A|----------------------------------------------------------------|
E|----------------------------------------------------------------|

Verse:
e|------------------------------------------------------------------|
B|-------------------------3-------------------------------3---3----|
G|-----------------------2---2---2-----------------------2---2---2--| x2
D|---2---2---2---2---0---------0-----2---2---2---2---0--------------|
A|------------------------------------------------------------------|
D|-2---2---5---5---0---0-----------2---2---5---5---0---0------------|


Chorus:
e|---------------------------------------------------------------------------|
B|---------------------------------------------------------------------------|
G|---------------------------------------------------------------------------|
D|-0----0----0--0----4----4----4--4----5----5----5--5-----0----0----0----0---|
A|-0----0----0--0----5----5----5--5----5----5----5--5-----0----0----0----0---|
D|-0----0----0--0----4----4----4--4----5----5----5--5-----0----0----0----0---|


Verse:
e|------------------------------------------------------------------|
B|-------------------------3-------------------------------3---3----|
G|-----------------------2---2---2-----------------------2---2---2--| x2
D|---2---2---2---2---0---------0-----2---2---2---2---0--------------|
A|------------------------------------------------------------------|
D|-2---2---5---5---0---0-----------2---2---5---5---0---0------------|

Break:
e|-----------------------------------------------------------------|
B|-----------------------------------------------------------------|
G|-------------------------------[5]---------------------------2---|
D|-2-------/5-------0-------[5]--------2-------/5-------0----------|
A|-----------------------------------------------------------------|
D|-----------------------------------------------------------------|

Verse:
e|------------------------------------------------------------------|
B|-------------------------3-------------------------------3---3----|
G|-----------------------2---2---2-----------------------2---2---2--| x2
D|---2---2---2---2---0---------0-----2---2---2---2---0--------------|
A|------------------------------------------------------------------|
D|-2---2---5---5---0---0-----------2---2---5---5---0---0------------|

Chorus:
e|---------------------------------------------------------------------------|
B|---------------------------------------------------------------------------|
G|---------------------------------------------------------------------------|
D|-0----0----0--0----4----4----4--4----5----5----5--5-----0----0----0----0---|
A|-0----0----0--0----5----5----5--5----5----5----5--5-----0----0----0----0---|
D|-0----0----0--0----4----4----4--4----5----5----5--5-----0----0----0----0---|

Bridge:
e|--------------------------------------------------------|
B|--------------------------------------------------------|
G|-------9-9-9-------9-9-9-9-9-----11---------------------| x4
D|-1111117-7-7-1111117-7-7-7-7-11

Burn By Myself Tabs – Dirty Heads

 -------------------------------------------------------------------------------
                             BURN BY MYSELF - Dirty Heads
-------------------------------------------------------------------------------
:fadon
 jedi_knight9402@hotmail.com

Tuning: Standard

strumming pattern isn't hard, you can figure it out by listening.

Note: i'm sure i am missing some things, this is just what i have made so far, but it does have the same feel as
the song. Please  to send me any corrections, or stuff i am missing.

Intro/verse:
      G                           D             G                 D     C
e|--------------------------------2-----2--|----------------------2-----0-------------------|
B|-------0------------------------3-----3--|--------0-------------3-----1-------------------|
G|------0-------------------------2--0--0--|------0---------------2-----0-------------------|
D|------------------0h2p0-0-------0-----0--|-------------0h2------0-----2-------------------|
A|-----------0h2-2----------------0-----0--|---------0h2----------0-----3-------------------|
E|---3-------------------------------------|---3------------------------x-------------------|

Chorus:
      G           D     C       G                  D
 By myself, by myself        don't want to burn by myself   
e|----3------------2----0-------3------------------2--------------------------|
B|----0------------3----1-------0------------------3--------------------------|
G|----0------------2----0-------0------------------2--------------------------|
D|----0------------0----2-------0------------------0--------------------------|
A|----2------------0----3-------2------------------0--------------------------|
E|----3------------x----x-------3---------------------------------------------|

chorus after "just to share it with somebody else"

     D     C     D
e|---2-----0-----2------------------------------------------------------------|
B|---3-----1-----3------------------------------------------------------------|
G|---2-----0-----2------------------------------------------------------------|
D|---0-----2-----0------------------------------------------------------------|
A|---0-----3-----0------------------------------------------------------------|
E|---x-----x-----x------------------------------------------------------------|




************************************

| /   slide up
| \   slide down
| h   hammer-on
| p   pull-off
| ~   vibrato
| +   harmonic
| x   Mute note
| b   Bend
| pb  Pre-bend
| br  Bend release
| pbr Pre-bend release
| brb Bend release bend

************************************

Sleeping By Myself solo Tabs by Pearl Jam

 This is the solo part of Sleeping by Myself by Pearl Jam

Standard tuning

e|-----------------------------------------------------|
B|--12----------12-----------13-----------/15--13-12---|
G|-----12----12----12---12------12----12------------14-|
D|--------12----------12-----------14------------------|
A|-----------------------------------------------------|
E|-----------------------------------------------------|

e|------------------------------------------------------------------||
B|--12-----------/13--12--------/13--12---------------13--------15--||
G|-----12----12-----------14-12----------14-12----------------------||
D|--------12-------------------------------------10/14-----12/16----||
A|------------------------------------------------------------------||
E|------------------------------------------------------------------||

Dear God I Hate Myself chords – Xiu Xiu

 -------------------------------------------------------------------------------
                             DEAR GOD, I HATE MYSELF - Xiu Xiu
-------------------------------------------------------------------------------
:Justin
sdjustinr

Tuning: Standard
Time Signature: Common time
 
Notes: At it's core this is a simple, easy and satisfying acoustic guitar song. 
Impress your friends and make your parents proud by singing this
anthemic ode to self-flagellation.

  
      Em D D/F# C7 C G A 

e|---0-----0----x----0-----0-----3-----5----|
B|---0-----0----3----0-----1-----3-----5----|
G|---0-----7----2----5-----0-----4-----6----|
D|---2-----7----0----5-----2-----5-----7----|
A|---2-----5----0----3-----3-----5-----7----|
E|---0----------2----------------3-----5----|

  |         |         |         |         |         |         |         |
   Em D C7  
                   despair will hold    a place in       my        heart
        a   bigger    one than  you       do        do        do
      and   i will    always         be   nicer        to the cat
                 than i am           to   you       you       you 

  |         |         |         |         |         |         |         |
   D C G 
       dear      God,      i         hate      my        self
       dear God, i    hate   my      self       
     and    i will    never          be   happy
     and    i'll      never          feel           normal

  |         |         |         |         |         |         |         |
   Em D C7 
              (don't  ask me    if this   line is  about you)

  |         |         |         |         |         |         |         |
   Em D/F# 
                      what do        they do there      tonite    tonite?
                      why  do        they go there      alright  alright?
   C7 D/F# 
                      why  do        they live there    tonite    tonite?
   Em 
  why       do        they      live at         all     alright  alright?

  |         |         |         |         |         |         |         |
   D C G 
       dear      God,       i        hate      my        self
       dear God, i    hate my        self
       and  i will    never          be   happy
       and  i will    never          feel      normal

  |         |         |         |         |         |         |         |
   G A 
  |         |         |         |         |         |         |         |
   C7 
                             (instrumental - play twice)

  |         |         |         |         |         |         |         |
   Em D/F# 
                      why do    they      live there        tonite   tonite?
   Em  
 why        do        they      live  at all               alright  alright?

  |         |         |         |         |         |         |         |
   Em D C7 
                      flip off      the   mirror         as          protest
            who the   F-word        are   you       you       you?

  |         |         |         |         |         |         |         |
   D C G 
        and i will    never          be   happy
        and i will    never          feel       normal
        dear      God,      i        hate       my        self
        dear      God,      i        hate       my        self


  |         |         |         |         |         |         |         |
   G A 
  |     

An Open Letter To Myself intro Tabs by Architects

 Architects - An Open Letter to Myself

Nice song, how there hasn't been a tab of this yet escapes me. C# tuning.

(This is just the intro, the rest will hopefully come later - any contributions to the 
final tab are appreciated :))

C#|-------------------------------------------------------------------|
G#|-----------------------------------------------8-------------------|
E |--------5------------5------------5---------------5----------------|
B |----7------7-----5------5-----5------5-----5-----------------------|
F |----7------------5------------3------------7-----------------------|
C#|-------------------------------------------------------------------|

C&C welcome as always.

Sleeping By Myself Tabs by Pearl Jam

 -------------------------------------------------------------------------------
                             Sleeping By Myself - Pearl Jam
-------------------------------------------------------------------------------
: boyaguitarra
 boyaguitarra

source: http://boyaguitarra.blogspot.com/2013/11/sleeping-by-myself-de-pearl-jam-stone.html

Tuning: Standard Capo +7

|-0--0--0-0-|-0--0--0-0-|-0-0-------|-----------|-0--0--0-0-|-0--0--0-0-|-0-0-------|-----------|
|-1--1--1-1-|-1--1--1-1-|-0-0-------|-----------|-1--1--1-1-|-1--1--1-1-|-0-0-------|-----------|
|-0--0--0-0-|-2--2--2-2-|-0-0-------|-----------|-0--0--0-0-|-2--2--2-2-|-0-0-------|-----------|
|-2--2--2-2-|-2--2--2-2-|-2-2-------|-----------|-2--2--2-2-|-2--2--2-2-|-2-2-------|-----------|
|-3--3--3-3-|-0--0--0-0-|-2-2-------|-----------|-3--3--3-3-|-0--0--0-0-|-2-2-------|-----------|
|-----------|-----------|-0-0-------|-----------|-----------|-----------|-0-0-------|-----------|

|-0--0--0-0-|-0--0--0-0-|-0--0--0-0-|-0--0--0-0-|-0--0--0-0-|-0--0--0-0-|-0--0--0-0-|-0--0--0-0-|
|-1--1--1-1-|-1--1--1-1-|-0--0--0-0-|-0--0--0-0-|-1--1--1-1-|-1--1--1-1-|-0--0--0-0-|-0--0--0-0-|
|-0--0--0-0-|-2--2--2-2-|-0--0--0-0-|-0--0--0-0-|-0--0--0-0-|-2--2--2-2-|-0--0--0-0-|-0--0--0-0-|
|-2--2--2-2-|-2--2--2-2-|-2--2--2-2-|-2--2--2-2-|-2--2--2-2-|-2--2--2-2-|-2--2--2-2-|-2--2--2-2-|
|-3--3--3-3-|-0--0--0-0-|-2--2--2-2-|-2--2--2-2-|-3--3--3-3-|-0--0--0-0-|-2--2--2-2-|-2--2--2-2-|
|-----------|-----------|-0--0--0-0-|-0--0--0-0-|-----------|-----------|-0--0--0-0-|-0--0--0-0-|

|-1--1--1-1-|-1--1--1-1-|-1--1--1-1-|-1--1--1-1-|-0--0--0-0-|-0--0--0-0-|-0--0--0-0-|-0--0--0-0-|
|-1--1--1-1-|-1--1--1-1-|-0--0--0-0-|-0--0--0-0-|-3--3--3-3-|-3--3--3-3-|-3--3--3-3-|-2--2--2-2-|
|-2--2--2-2-|-2--2--2-2-|-0--0--0-0-|-0--0--0-0-|-3--3--3-3-|-3--3--3-3-|-2--2--2-2-|-2--2--2-2-|
|-3--3--3-3-|-3--3--3-3-|-0--0--0-0-|-0--0--0-0-|-0--0--0-0-|-0--0--0-0-|-2--2--2-2-|-2--2--2-2-|
|-3--3--3-3-|-3--3--3-3-|-2--2--2-2-|-2--2--2-2-|-----------|-----------|-0--0--0-0-|-0--0--0-0-|
|-1--1--1-1-|-1--1--1-1-|-3--3--3-3-|-3--3--3-3-|-----------|-----------|-----------|-----------|

|-1--1--1-1-|-1--1--1-1-|-1--1--1-1-|-1--1--1-1-|
|-1--1--1-1-|-1--1--1-1-|-0--0--0-0-|-0--0--0-0-|
|-2--2--2-2-|-2--2--2-2-|-0--0--0-0-|-0--0--0-0-|
|-3--3--3-3-|-3--3--3-3-|-0--0--0-0-|-0--0--0-0-|
|-3--3--3-3-|-3--3--3-3-|-2--2--2-2-|-2--2--2-2-|
|-1--1--1-1-|-1--1--1-1-|-3--3--3-3-|-3--3--3-3-|

|-0--0--0-0-|-0--0--0-0-|-0-0-------|-----------|-0--0--0-0-|-0--0--0-0-|-0-0-------|-----------|
|-1--1--1-1-|-1--1--1-1-|-0-0-------|-----------|-1--1--1-1-|-1--1--1-1-|-0-0-------|-----------|
|-0--0--0-0-|-2--2--2-2-|-0-0-------|-----------|-0--0--0-0-|-2--2--2-2-|-0-0-------|-----------|
|-2--2--2-2-|-2--2--2-2-|-2-2-------|-----------|-2--2--2-2-|-2--2--2-2-|-2-2-------|-----------|
|-3--3--3-3-|-0--0--0-0-|-2-2-------|-----------|-3--3--3-3-|-0--0--0-0-|-2-2-------|-----------|
|-----------|-----------|-0-0-------|-----------|-----------|-----------|-0-0-------|-----------|

|-0--0--0-0-|-0--0--0-0-|-0--0--0-0-|-0--0--0-0-|-0--0--0-0-|-0--0--0-0-|-0--0--0-0-|-0--0--0-0-|
|-1--1--1-1-|-1--1--1-1-|-0--0--0-0-|-0--0--0-0-|-1--1--1-1-|-1--1--1-1-|-0--0--0-0-|-0--0--0-0-|
|-0--0--0-0-|-2--2--2-2-|-0--0--0-0-|-0--0--0-0-|-0--0--0-0-|-2--2--2-2-|-0--0--0-0-|-0--0--0-0-|
|-2--2--2-2-|-2--2--2-2-|-2--2--2-2-|-2--2--2-2-|-2--2--2-2-|-2--2--2-2-|-2--2--2-2-|-2--2--2-2-|
|-3--3--3-3-|-0--0--0-0-|-2--2--2-2-|-2--2--2-2-|-3--3--3-3-|-0--0--0-0-|-2--2--2-2-|-2--2--2-2-|
|-----------|-----------|-0--0--0-0-|-0--0--0-0-|-----------|-----------|-0--0--0-0-|-0--0--0-0-|

|-1--1--1-1-|-1--1--1-1-|-1--1--1-1-|-1--1--1-1-|-0--0--0-0-|-0--0--0-0-|-0--0--0-0-|-0--0--0-0-|
|-1--1--1-1-|-1--1--1-1-|-0--0--0-0-|-0--0--0-0-|-3--3--3-3-|-3--3--3-3-|-3--3--3-3-|-2--2--2-2-|
|-2--2--2-2-|-2--2--2-2-|-0--0--0-0-|-0--0--0-0-|-3--3--3-3-|-3--3--3-3-|-2--2--2-2-|-2--2--2-2-|
|

All By Myself chords – Eric Carmen V4

 Capo at 10th, transpose -2,(or leave like this to sing with baritones!)
Ask if you want chord fingering help.   Don't really capo at 10th...

 G Cm G F6 
When I was young, I never needed anyone
             Esus  -    E Am Cm G/B Cm /A- D/F# 
And makin' love was just for fun,   those days are gone
 G Cm G F6 
Livin' alone, I think of all the friends I've known
             E7 Am Cm G/B E Am - Cm - D - D7/F# 
But when I dial the telephone,  nobody's home

 G Bm F6 E7 Am Cm /G- D7/F# 
All by myself, don't wanna be, all by myself anymore
 G Bm F6 E7 Am Cm /G- D7/F# 
All by myself, don't wanna live, all by myself anymore

 G Cm G F6 
Hard to be sure, sometimes I feel so insecure
          E7 Am Cm G/B Cm /A- D/F# 
And love so distant and obscure, remains the cure

Solo:  G Cm G F6 E Am Cm G /B  E Am - Cm - D - D7/F# G Bm F6 E7 Am Cm /G- D7/F# 
All by myself, don't wanna be, all by myself anymore
 G Bm F6 E7 Am Cm /G- D7/F# 
All by myself, don't wanna live, all by myself anymore

 G Cm G F6 
When I was young, I never needed anyone
             E7 Am Cm G/B E Am - Cm - D - D7/F# 
And makin' love was just for fun,  those days are gone

 G Bm F6 E7 Am Cm /G- D7/F# 
All by myself, don't wanna be, all by myself anymore
 G Bm F6 E7 Am Cm /G- D7/F# 
All by myself, don't wanna live, all by myself anymore
 G Bm F6 E7 Am Cm /G- D7/F# 
All by myself, don't wanna be, all by myself anymore
 G Bm F6 E7 Am Cm/G - D7/F# G 
All by myself, don't wanna live, all by myself anymore