Tag: name

I Dont Want To Know Your Name chords – Glen Campbell

 I Don't Want To Know Your Name
Glen Campbell

Intro  A (arpeggio)

Verse 1

 A 
I see you just like the movies
            A7 D 
I see your face across a crowded room
 F#m             
And I have learned through
 A F#m Bm 
Simple trial and error
                  E E7  
Not to speak too soon

Verse 2

 A 
  Your eyes just like a magnet
         A7 D F#m 
They're drawing my eyes around

And I can't hear 
     A F#m Bm 
one Word of conversation
                E D 
I can't hear a sound

Pre-chorus

                        A(open) D/C#  B
I see you looking at me

You see me looking at you  But

Chorus 1
(for walk up and down between E and B Chords)

E__________________|
B__________________| used thru out
G__________________|
D__________________|
A____0__2___0__2___|
E__0______0________|


 E B B7 E            
I don't wanna know your name
 B E B B7 E       
And I don't wanna play this game
       E 
Where two lovers meet
     B B7 E 
And one lover parts in pain

Verse 3

 A 
I feel this urge to meet you
   A7 D    
I feel this urge to run
 F#m A F#m 
Repairing hearts so easily shattered
 Bm E D 
Is never any fun

Pre-chorus

                        A(open) D/C#  B
I see you looking at me

You see me looking at you  But


Chorus 2

 E B B7 E 
I don't wanna know your name
     E B B7 E  
And I don't wanna play this game
       E 
Where two lovers meet
     B B7 E 
And one lover parts in pain

Riff   E B A G D G D A G D A E B  

Outro

 E B B7 E 
I don't wanna know your name
 E B B7 E 
I don't wanna play this game
 E B B7 E 
I don't wanna know your name
 E B B7 E 
I don't wanna play this game

flyinglibra51
God Bless Glen Travis Campbell

The Cautious – Pages Of Your Name Tabs

 -------------------------------------------------------------------------------
                     PAGES OF YOUR NAME - The Cautious
-------------------------------------------------------------------------------
: Ritwik Krishnan

Intro:
 Form (4 bars guitar, 8 bars guitar/vocals, 24 bars guitar/vocals/bass/drums)

Guitar 1:

e|-5-------9-------12---------------|
B|-7-------9-------12---------------|
G|-6-------11------14---------------|
D|-7-------11------14---------------|
A|-5-------9-------12---------------|
E|----------------------------------|

(Dmaj7, F#sus2, Asus2)

Guitar 2:

e|-5-------9-------12---------------|
B|-7-------9-------12---------------|
G|-6-------11------14---------------|
D|-7-------11------14---------------|
A|-5-------9-------12---------------|
E|----------------------------------|

(Dmaj7, F#sus2, Asus2)

Bass:

G|------------------------------------------------------------------|
D|------------------------------------------------------------------|
A|-5-----5-5-5---5--------------------------------------------------|
E|-----------------2-----2-2-2---0-5-----5-5-5---5--7---9---7---5---|

Verse 1:
 Form (8 bars bass/drums/vocals, 8 bars guitar/bass/drums/vocals)

Guitar 1:

e|------------------------------------------------------------------------------------|
B|-------7------------------9------------------12----------------------12-------------|
G|-----6---6-------------11-----------------14----14----------------14----14----------|
D|---7-------7---7----11-----------------14----------14----14----14----------14----14-|
A|-5-----------5----9-----------------12----------------12----12----------------12----|
E|------------------------------------------------------------------------------------|

e|------------------------------------------------------------------------------------|
B|-------7------------------9--9h10p9----------12----------------------12-------------|
G|-----6---6-------------11-----------------14----14----------------14----14----------|
D|---7-------7---7----11-----------------14----------14----14----14----------14----14-|
A|-5-----------5----9-----------------12----------------12----12----------------12----|
E|------------------------------------------------------------------------------------|

(Dmaj7, F#sus2, Asus2)

Guitar 2:

e|-5-------9-------12---------------|
B|-7-------9-------12---------------|
G|-6-------11------14---------------|
D|-7-------11------14---------------|
A|-5-------9-------12---------------|
E|----------------------------------|

(Dmaj7, F#sus2, Asus2)

Bass:

G|------------------------------------------------------------------|
D|------------------------------------------------------------------|
A|-5-----5-5-5---5--------------------------------------------------|
E|-----------------2-----2-2-2---0-5-----5-5-5---5--7---9---7---5---|

Chorus:
 Form (16 bars guitar/bass/drums/vocals)

Guitar 1:

e|-5-------9-------12---------------|
B|-7-------9-------12---------------|
G|-6-------11------14---------------|
D|-7-------11------14---------------|
A|-5-------9-------12---------------|
E|----------------------------------|

(Dmaj7, F#sus2, Asus2)

Guitar 2:

e|-5--------------------------------|
B|-7--------------------------------|
G|-6--------------------------------|
D|-7--------------------------------|
A|-5--------------------------------|
E|----------------------------------|

(Dmaj7)

Verse 2 (TABS SAME AS VERSE 1):
 Form (8 bars bass/drums/vocals, 8 bars guitar/bass/drums/vocals)

Chorus (TABS SAME AS FIRST CHORUS):
 Form (16 bars guitar/bass/drums/vocals)

Bridge:
 Form (16 bars guitar/bass/drums/vocals)

Guitar 1:

e|-5-------9-------12-------9-------7---|
B|-7-------9-------12-------10------x---|
G|-6-------11------13-------11------9---|
D|-7-------11------14-------11------9---|
A|-5-------9-------14-------9-------7---|
E|-----------------12-------------------|

(Dmaj7, F#sus2, E, F#min, E)

Guitar 2:

e|-5-------9-------12-------9--

He Knows My Name chords – Tommy Walker V6

 INTRO

 E F#m7 E/G# A E/B Bsus B A 


VERSE I


 E F#m7 E/G# A 
I have a Ma----ker

 E/B B7sus B A/B 
He formed my heart

 E F#m7 E/G# A 
Before even time began

 E/B B       
My life was in his 

 E F#m7 E/G# 
hands.


CHORUS


 A E B E 
He knows my name

 A E B E 
He knows my every thought

 A E B C#m 
He sees each tear that falls and 

 A B E A/E 
hears me when I call


VERSE II


 E F#m7 E/G# A 
I have a Fa----ther

 E/B B7sus B A/B 
He calls me His own

 E F#m7 E/G# A 
He'll never leave me

 E/B B E F#m7 E/G# 
No matter where I go


CHORUS 

 A E B E 
He knows my name

 A E B E 
He knows my every thought

 A E B C#m 
He sees each tear that falls and 

 A B E A/E 
hears me when I call



YouTube:
https://www.youtube.com/channel/UCNEFmIlsMqKfPeImMgatD1A

Ultimate Guitar Profile:
http://profile.ultimate-guitar.com/Maestro_727

Guitar Lessons website:
http://gsguitarfun.weebly.com

George Salas is a public middle school guitar teacher and Praise & Worship leader. He is currently pursuing 
a Master's in Music Education.

Jesus What A Beautiful Name chords – Hillsongs V2

 Verse 1:

 G Em G Em 
Jesus, what a beautiful name.

 C G C G Am D 
Son of God, Son of Man, Lamb that was slain.

 D G C G   
Joy and peace, strength and hope

   B Em C 
Grace that blows all fear away.

   G D C G 
Jesus what a beautiful name. 





Verse 2: 

  G Em G Em 
Jesus, what a beautiful name.

  C G C G Am D 
Truth revealed, my future sealed, healed my pain.

  D G C G 
Love and freedom, life and warmth 

   B Em C 
Grace that blows all fear away.

   G D C G 
Jesus, what a beautiful name.





Verse 3:

  G Em G Em 
Jesus, what  a beautiful name. 

  C G C G Am D 
Rescued my soul, my stronghold, lifts me from shame. 

  D G C G 
Forgiveness, security, power and love  

  B Em C 
Grace that blows all fear away.

  G D C G C G 
Jesus, what a beautiful name.

The Stars Keep On Calling My Name solo Tabs – Mac Demarco

 This is the solo at the end of the album version song:

From 1:45 to the end (2:23)

Note: the solo in the live version is 100% different, so make sure you listen the album/studio version.

Tuning: Standard (EADGBe)

e -----------------------
B --/15-15-15-15----15---
G -----------------------
D -----------------------
A -----------------------
E -----------------------

e ------------------15---
B --/15-15-15-15---------
G -----------------------
D -----------------------
A -----------------------
E -----------------------

e ------------------------------------
B --/15-15-15-15p12-------------------
G ------------------14p12-14-14p12-14-
D ------------------------------------
A ------------------------------------
E ------------------------------------

e ------------------17---
B --/15-15-15-15---------
G -----------------------
D -----------------------
A -----------------------
E -----------------------

e ------------------15---
B --/15-15-15-15---------
G -----------------------
D -----------------------
A -----------------------
E -----------------------

e ----------------------------
B --/15-15-15-15----15p12-----
G ------------------------14--
D ----------------------------
A ----------------------------
E ----------------------------

e -----------------------
B --/15-15-15-15----15---
G -----------------------
D -----------------------
A -----------------------
E -----------------------

e ------------------15---
B --/15-15-15-15---------
G -----------------------
D -----------------------
A -----------------------
E -----------------------

e ----------------19-17b19b17-15-15-17---
B --/15-15-15-15-------------------------
G ---------------------------------------
D ---------------------------------------
A ---------------------------------------
E ---------------------------------------

                                  (wait)
e ---------------------------------------------------------------------------------------------------
B --/15-15-15-15----15p12-15-15-------------12-------------------------------------------------------
G ----------------------------------------------14-14-----14b16b14-14-12-14---14b16b14-14-12-12------
D ---------------------------------------------------------------------------------------------------
A ---------------------------------------------------------------------------------------------------
E ---------------------------------------------------------------------------------------------------

e ----------------------
B ----------------------
G --14b16b14-14-12-12---
D ----------------------
A ----------------------
E ----------------------


Notation:
"/15" means slide from anywhere.
"14b16b14" means bend "14" until it sounds like "16" and from there bend it back so it sounds again like "14"

Give Me Your Name Tabs – Dead By Sunrise

 Give Me Your Name - Tab

Tuning:
Guitar I (Rhythm): Dropped D
Guitar II (Heavy Distortion): Dropped D
Guitar III (Acoustic): Standard

Note I: Some parts of guitar II, especially the end of the 
solo, were hard to hear clearly because of the heavy 
distortion.  Also, to get the timing right for guitar II's 
parts, you just need to listen to the song as you play.

Note II: I may add the melody guitar II plays during the chorus
later.  If there is one (which I think there is) it's hard to 
hear and is subtle.

__________________

Key:

/=Slide up
\=Slide down
~=Let ring
b=bend
p=pull off
v=vibrato
()=optional note
-\=I don't know how else to write it, 
but this means slide down the string slowly.
__________________

[Intro (0:00-0:28)]
[Guitar I]
E|------------------------------------------------------------|
B|------------------------------------------------------------|
G|------------------------------------------------------------|
D|------------------------------------------------------------|
A|-9/10~----------7~----------2~----------5~------------------|
D|-9/10~----------7~----------2~----------5~------------------|

[Guitar II]
[0:05-0:28]
E|------------------------------------------------------------|
B|-13bp12bp10~----10/12\10~----10\6---------------------------|
G|----------------------------------7/9~----9\7/9~----9\4-----|
D|----------------------------------------------------9\4-----|
A|------------------------------------------------------------|
D|------------------------------------------------------------|

E|-7~----7-7----------------7------7--------------------------|
B|-8~--------8-8-8----8---8---8------8------------------------|
G|-----------------7----7-------7------7----------------------|
D|------------------------------------------------------------|
A|------------------------------------------------------------|
D|------------------------------------------------------------|

[Verse I (0:29-1:28)]
[Guitar I]
[x2]
E|------------------------------------------------------------|
B|------------------------------------------------------------|
G|------------------------------------------------------------|
D|------------------------------------------------------------|
A|-9/10~----------7~----------2~----------5~------------------|
D|-9/10~----------7~----------2~----------5~------------------|

[Guitar II]
[0:29-0:36]
E|------------------------------------------------------------|
B|---------------------8b--8/10b--10~-------------------------|
G|------------------------------------------------------------|
D|-9/10~------------------------------------------------------|
A|------------------------------------------------------------|
D|------------------------------------------------------------|

[0:50-1:00]
E|------------7---7---------7/10--8p7-------------------------|
B|-----8~--8----8----7/8--------------------------------------|
G|-7\4-7~------------7-7--------------------------------------|
D|-7\4--------------------------------9/10~-------------------|
A|------------------------------------------------------------|
D|------------------------------------------------------------|

[1:04-1:19]
E|------------------------------------------------------------|
B|-8b--8/10b--10~----------8--------------12\10/12~-----------|
G|------------------------------------------------------------|
D|----------------------------(5~)----------------------------|
A|------------------------------------------------------------|
D|------------------------------------------------------------|

[1:20-1:28]
E|----------------------------12v~----------------------------|
B|-10\7/8v~------12\10/12~------------------------------------|
G|------------------------------------------------------------|
D|------------------------------------------------------------|
A|------------------------------------------------------------|
D|------------------------------------------------------------|

[Chorus I (1:29-1:57)]
[Guitar I/II

Power In The Name Of Jesus chords – Ascend The Hill

 Intro:    A   -   E 

Verse:
       C#m A E 
I was far away from you
  C#m A E 
Jesus brought me near
       C#m A E 
I was broken off from you
 C#m A E 
Jesus brought me near

Pre-Chorus:
    B A B A                  
My hope, my song my sacrifice of praise is Christ crucified for me
    B A B A                
My strength, my boast, my sacrifice of praise is the mention of your name


Chorus:
 E   -   G#m   -   F#m   -   C#m   -   A 
Jesus, Jesus, the mention of Your name
 E  -  G#m   -   F#m   -   C#m   -   C#m 
Jesus


Bridge:
           A E 
There is power in the name (x4)

 B  -  A   -   B  -  A 
Jesus,    Jesus (x2)

Give Me Your Name Accoustic chords – Dead By Sunrise

 Intro:  C ,  Am ,  Em ,  G C 
Give me a smile; give me your name girl.
 Am 
Give me a sign to get my way.
                Em 
And get what I came for...(you)...
                       G 
Because you don't come easy.

 C 
Give me your hand; come walk with me girl.
 Am 
Nothing's that far when you're near.
              Em 
So come even closer to me.
              G 
Something so easy to do.


       F C Am 
And I fall into the ocean.
           Em      
Inside of your arms, 
                                G 
Taking me deeper where all the pain goes. 

 C 
Give me a smile; give me your name girl. 
 Am 
Let them know that you're mine. 
                 Em 
And I'll do the same for you. 
                      G 
Because our love comes easy. 

       F C Am 
And I fall into the ocean. 
           Em 
Inside of your arms,
                                G 
Taking me deeper where all the pain goes. 

Bridge:  C ,  Am ,  Em ,  G F C Am 
And I fall into the ocean. 
           Em 
Inside of your arms, 
                                G 
Taking me deeper where all the pain goes. 
        C Am 
With a smile into the ocean. 
           Em 
Inside of your arms,
                            G 
Taking me deeper giving me new life. 
 C Am  
You are my whole life... 
 Em G 
You are my whole life...

Not Your Savior chords – No Use For A Name V2

 No Use For A Name
Not Your Savior
More Betterness
1999 Fat Wreck Chords
Submitted by: jeremyunderground41

Key: C

Tuning: Standard EADGBe

Chords used:
 C  -    x32010
 G  -    320003
 Am  -   x02210
 Em  -   022000
 F  -    133211
 Fm  -   133111
 G/B  -  x2x003
 D/F#  - 2x023x
 Dm  -   xx0231


Intro:  C -- Em -- F -- G -- x2,  C --


Verse 1:
         Dm C G/B 
Unlucky seventeen     already 
                  C G/B Am 
handed plans for the future
 G F 
Glamour obsessed told how
    G 
to dress and shown
        C 
how to think 


Verse 2:
             Dm 
And I don't have a
    C G/B 
job     but I can show you
        C G/B Am 
how to be a slob 
 G F 
So many days wasted and
 G Am 
glazed Sometimes I laugh
          F 
aloud as I think about
        C 
You're asking me
                 D/F# 
"Please can you help?"
               F 
Can't help my self
 G 
I'm not your-


Chorus 1:
    C 
-savior I'm not who
     G 
you want me to be
         F 
A cowardly mistake I've
              G 
made so many times before
             C 
refusing to break Cut my 
        Em 
losses ties them with you
        F 
like a good boy I'll pretend
 Fm C G/B Am G F G C --
  And promise not to do it again


Verse 3:
          Dm C G/B 
Do you remember when 
life was so simple and
 C G/B Am 
permanent?
 G F 
Everyone's changed 
            G 
Everyone's cool
          Am 
Everyone sucks
             F 
But I can't seem
               C 
to complain Exciting
and new is just
     D/F# 
not there You're
          F 
getting scared
 G 
I'm not your-


Chorus 3:
    C 
-savior never
           G 
thought I was anyway
       F 
I'm a void with empty 
               G 
promises that backs out late
                C 
Never said I'd change taking
          Em 
back the words that we spoke
        F 
Like a fuel tank running dry
 Fm (hold)                    C Em F G 
  you'll believe it when I choke
                          C Em F G C Em F G C Em F G 
you'll believe it when I choke

Coming Too Close chords – No Use For A Name

 No Use  For A Name
Coming Too Close
More Betterness
1999 Fat Wreck Chords
Submitted by: jeremyunderground41

Key: C

Tuning: Standard EADGBe

Chords used:
 C  -    x32010
 G  -    320003
 Am  -   x02210
 F  -    133211
 Dm  -   xx0231
 Em  -   022000
 E  -    022100
 E/G#  - 476xxx
 Bb  -   x13331
 A  -    x02220


Intro:  C -- G - F -- Em - Dm -- C - G -- F -


Verse 1:
 C 
  There was a time when
 G F Em 
you would come and go
 Dm 
  Now there's no time
      C G F 
left to react
 E 
  Just as it starts to heal
    F 
in comes a bitter end
               C 
Well you were already to
                   G 
leave my side and then


Chorus 1:
                   F 
You're coming too close
                C 
and I can't pretend
                    G 
That I'll pick you up
                 E 
or let you come in again
We've been through this
   F C 
before so please understand
                      G 
That nothing in this heart 
                       Bb 
can save you from the pain
     A F 
you seek If you pick up the
       G (hold)               C G F Em Dm C G F      
phone please don't call on me


Verse 2:
 C 
  No one can save you
 G F Em 
from the undertow
 Dm 
  Nobody can blame
    C G F 
us for the past
 E 
  Just as I started 
           F 
thinking "Everything's alright"
               C 
You showed us surely that
                          G 
your tenth time was your last


Chorus 2:
                   F 
You're coming too close
                C 
and I can't pretend
                    G 
That I'll pick you up
                 E 
or let you come in again
We've been through this
   F C 
before so please understand
                      G 
That nothing in this heart 
                       Bb 
can save you from the pain
     A F 
you seek If you pick up the
       G (hold)   
phone please don't call on me


Bridge:
 F 
  Yesterday I saw you
 G 
falling to the ground
 E/G# 
    Seems like things get
            Am G 
worse when no one is
  F Dm C G F Em Dm C G 
around It's not OK


Chorus 3:
        G (hold)     F 
You're coming too close
                C 
and I can't pretend
                    G 
That I'll pick you up
                 E 
or let you come in again
We've been through this
   F C 
before so please understand
                      G 
That nothing in this heart 
                       Bb 
can save you from the pain
     A F 
you seek If you pick up the
       G (hold)               C G F Em Dm C G F 
ph

Chasing Rainbows chords – No Use For A Name V2

 No Use For A Name
Chasing Rainbows
More Betterness
1999 Fat Wreck Chords
Submitted by: jeremyunderground41

Key: Ñ

Tuning: Standard EADGBe

Chords used:
 C  -   x32010
 G  -   320003
 Am  -  x02210
 F  -   133211
 C/E  - 032xxx
 Dm  -  xx0231
 E  -   022100
 Bb  -  x13331
 G/B  - x2x003
 F/A  - x032xx


Intro: 
 C -- G -- Am -- F -- C -- G -- Am -- F - C/E - Dm --


Verse 1:
 C G 
  Just heard the news today
 Am F 
  let yourself down once again
 C G 
  Trusted your feelings in
   E F 
a place that no one goes
 C G 
  Will you do anything
 Am F 
  to satisfy your so-called
 C G 
  friend? There's something
              F 
you ought to know 
        G (hold)     F 
before you explode


Chorus 1:
 Am F 
All I want to do is make sure 
 G C G/B 
you stop chasing rainbows
 Am G 
Trusting those around you
       F G 
is an easy thing to do
 Am F 
I'm not saying don't believe
    G C G/B 
in someone that you don't know
 Am G 
Just don't go on thinking that
     Dm C Bb F C G Am F (hold)  C /E
the whole world tells the truth


Verse 2:
 C G 
  It's all fucked up
 Am F 
  being reserved and quiet
 C G 
  She doesn't understand 
     E F 
the message that you send
 C G 
  Don't give it all away 
     Am 
somewhere sometimes 
         F 
there's someone
 C G 
  Who can replace that
          F 
state of mind you never
 G (Hold)            F 
give it time never


Chorus 2:
 Am F 
All I want to do is make
      G C G/B 
sure you stop chasing rainbows
 Am G 
Letting everybody crawl
   F G 
inside your heart and mind
 Am F 
Kicking you is easy when you're
 G C G/B 
down that's where the weak go
 Am G 
To release their anger on
     Dm C Bb F C G/B 
someone who will not try to 
  Am G Bb F/A G F C G Am F C G Am F - C/E -Dm(hold)-C(hold)   
stand up and give them a fight 

Blessed Be Your Name chords – Tree 63 V4

 BLESSED BE YOUR NAME

Intro:  C# - G# - Bbm - F# 

VERSE 1:
   C# G# 
  Blessed be Your name
        Bbm F# 
  In the land that is plentiful
               C# G# 
  Where Your streams of abundance flow
          F# 
  Blessed be Your name

VERSE 2:
   C# G# 
  Blessed be Your name
           Bbm F# 
  When I'm found in the desert place
            C# G# 
  Though I walk through the wilderness
          F# 
  Blessed be Your name

PRE-CHORUS:
   C# G# 
  Every blessing You pour out
 Bbm F# 
  I'll turn back to praise
   C# G# 
  When the darkness closes in
      Bbm F# 
  Lord, still I will say

CHORUS:
                  C# G# 
  Blessed be the name of the Lord
                   Bbm 
  Blessed be Your name
                   C# G# 
  Blessed be the name of the Lord
                   Bbm F# 
  Blessed be Your glorious name

VERSE 3:
   C# G# 
  Blessed be Your name
            Bbm F# 
  When the sun's shining down on me
             C# G# 
  When the world's all as it should be
           F# 
  Blessed be Your name

VERSE 4:
   C# G# 
  Blessed be Your name
          Bbm F# 
  On the road marked with suffering
                C# G# 
  Though there's pain in the offering
           F# 
  Blessed be Your name

BRIDGE:
       C# G# 
  You give and take away
       Bbm F# 
  You give and take away
      C# G# 
  My heart will choose to say
         Bbm F# 
  Lord, blessed be Your name

Blessed Be Your Name chords – Matt Redman V10

 E B C#m A 
 Blessed be You name  in the land that is plenitful
            E B A 
Where Your streams of abundance flow  Blessed be Your name
 E B C#m A 
 And blessed be Your name  when I'm found in the desert place
          E B A 
Though I walk through the wilderness  Blessed be Your name


 E 
 Every blessing You pour out I'll  turn back to praise 
 E B C#m A 
 And when the darkness closes in, Lord  Still I will say

(Chorus)              
                   E B 
   Blessed be the name of the Lord
                    C#m A 
   Blessed be Your name
                   E B 
   Blessed be Your name of the Lord
                    C#m A 
   Blessed be Your glorious name

(Verse 2)
 E B C#m A   
 Blessed be Your name  when the sun's shining down on me
          E B A  
When the world's "all as it should be"  Blessed be Your name
 E B C#m A 
 And blessed be Your name  on the road marked with suffering 
                E B A 
Though there's pain in the offering  Blessed be Your name

(Bridge)
     E B 
You give and take away
     C#m A 
You give and take away
     E B 
My heart will choose to say
       C#m A 
Lord, blessed be Your name

The Feel Good Song Of The Year chords – No Use For A Name

 No Use For A Name
The Feel Good Song Of The Year
Feel Good Record Of The year
2008 Fat Wreck Chords
Submitted by: jeremyunderground41

Key:  D 

Tuning: Standard EADGBe

Chords used:
 Bm  -    x24432
 G  -     320033
 D  -     xx0232
 A  -     x02220
 F#  -    244322
 F#m  -   244222
 F#/Bb  - x143xx
 D/F#  -  2x023x
 Em  -    022000
 E  -     022100


Intro: Woman speaking

Then
Bm--G--D--A-- x2
Bm--G--D--A-F#


Verse 1:
I never thought the 
 Bm 
day would come when I
                     G 
Would be the poison in
the pen I use to write
     D 
You said you were alone in 
               A F#/Bb 
somewhat of a nervous tone
                    G 
I guess it was the blank
look on your face that
     Bm A 
was easy to replace


Chorus 1:
    D 
So then I went and drank
                   A 
myself into an idiot
all through the night
   F#/Bb 
Recounting all my
 Bm A 
paranoid and selfish
              G A F# 
thoughts but I was right


Post Chorus: Bm--F#(hold)


Verse 2:
I made a space for 
 Bm 
you inside my soul
                     G 
And let my feelings kill
the part that I control
    D 
So part of you was me
                  A 
neglectful maybe cold
          F#/Bb 
it seemed     Despite
            G 
having the wounds we
both imbibe the scars are
 Bm A 
somewhere we can't hide


Chorus 2:
   D 
I then stayed up for two

more years just thinking
        A 
of the sacrifice you made
   F#/Bb Bm 
Indifferent to the reason
      A G D/F# Em 
so apparent in the pain
   D 
I polished off another
drink and taught myself
    F#m 
to numb and drift away
              G 
For one more night so
         A Bm F# 
I could justify the day


Bridge:
    G A 
So now I entertain
the thought of
 F#/Bb Bm 
going on all alone
     E 
But you are all the
                A G D/F# Em 
life I've ever known


Chorus 3:
   D 
I swear one day I'll get
it back something that
      A 
is already dead and gone
  F#/Bb Bm 
Again i see the trumpet
        A 
player looking for his
 G G D/F# Em D 
song         Don't worry
I won't follow you that part
          F#m 
of me is learning to let got
             G 
What was a space is like
   A Bm Bm -Bm(hold)
a cancer in my soul

I Want To Be Wrong chords – No Use For A Name

 No Use For A Name
I Want To Be Wrong
Feel Good Record Of The year
2008 Fat Wreck Chords
Submitted by: jeremyunderground41

Key:  E 

Tuning: Standard EADGBe

Chords used:
 G#m  -  466444
 F#m  -  244222
 A  -    x02220
 Am  -   x02210
 E  -    022100  
 Eb  -   x68886
 C#m  -  x46654
 B/Eb  - x698xx
 G#  -   466544
 G#/C  - x365xx


Intro:

Bass Solo: 
 G#m - F#m - A - G#m - x3
 E - Eb - C#m - B -


Distortion: 
C#m--G#m--G#--C#m-B-A--E--B--G#/C--C#m--


Verse 1:
 C#m 
Let me introduce myself
    G#m 
my name is no concern
     G# 
The room is filled 
                  C#m B 
with superficial voices
 A 
As the smoke clears I can
         B 
see one hundred little lies
 G# 
Racing to the finish for
   A B 
a consolation prize


Chorus 1:
              E 
I want to be wrong
               G#m 
I wish that I was 
           C#m 
uncertain just
      B/Eb A 
like yesterday
      E 
This is not who I am
      G#m 
been planning my escape
    A 
So long now that my
B                C#m G#-F#m-A-G#m  C#m 
Always on the dark side
      G#m 
of a pessimistic moon
    G# 
Or burning in the sun
                 C#m B 
of what they're saying
 A 
If you have the foresight
         B 
can you read between the
        G# 
lines? Finger two and four
          A B 
inviting fingers one and five


Chorus 2:
               E 
To be in this song
                G#m 
it's nothing I can shut off
       C#m B/Eb A 
But I think it's my place
    E 
To let you know I know that
 G#m 
all your plans are fake
     A 
And what you give me
B             C#m-- x8
I could never take


Bridge:
 E B 
  Are you confusing me with
 C#m 
someone else you hardly even
 G# A 
know? I'm sitting here observing 
          B 
and more often I am learning
          G#/C 
That you are an artist and 
              C#m A Am 
this is your show so sing it


Chorus 3:
              E 
I want to be wrong but 
            G#m 
what did i really think
      C#m B/Eb A 
That this could become real?
     E 
Now writing in cliches
    G#m 
to learn from my mistakes
     A 
But how much of you
B            C#m-- x4
could anyone take?

Biggest Lie chords – No Use For A Name V2

 No Use For A Name
Biggest Lie
Feel Good Record Of The Year
2008 Fat Wreck Chords
Submitted by: jeremyunderground41

Key:  Eb 

Tuning: Standard EADGBe

Chords used:
 Cm  - x35543
 G#  - 466544
 Eb  - x68886
 Bb  - x13331
 F   - 133211
 G  -  320033
 D  -  xx0232


Intro: Man Speaking

Then Cm--Eb--D-Bb-Eb-D-- x3, G#--Bb-G-


Verse 1:
 Cm 
  The writing is on the
     G# 
wall  but no cares at all
 Bb 
  To convey the message 
 Eb 
  that we wrote ourselves
 G# 
  Destroy the walls we
     F 
mend and burn the
               Bb--
candle at both ends


Chorus 1:
                    G# 
(I really think we are)
Becoming more mindless
    Eb 
of the heart (becoming
               Bb 
everything we hate)

Building our castles
         Cm 
for the future ( A 
trojan horse is
        G# 
at the gate)
Built by the enemy
         G 
that we made


Verse 2:
 Cm 
  It's false sincerity
 G# 
  we hear celebrities
 Bb 
  "Buy a hybrid if you can"
     Eb 
with  ten years of your
            G# 
food stamps  Caught myself
              F 
listening to sheltered 
                  Bb--
excuses for human beings


Chorus 2:
                 G# 
(So it becomes elite)
They separate then
           Eb 
what have we got?
(Nothing in common
with their wealth)
 Bb 
  One clip can change
         Cm 
public opinion
(One sin can send you
             G# 
straight to hell)

Learned how to lie
             G 
and not get caught
More piss in
the melting pot


Guitar Solo:
Cm--Eb--D-Bb-Eb-D-- x4


Chorus 3:
 G# 
  Shut out majority 
      Eb 
with riches
(Their words become
           Bb 
more valuable)
Then the voice of a 
                  Cm 
million starving children
(That they have a 
                 G# 
million ways to solve)

Left freedom bleeding
        G 
on the roadside we 
                    Cm--Eb--D-Bb-Eb-D-Cm--Eb--D-Bb-Cm(hold)
believe the biggest lie

The Band With No Name Tabs by Ten Years After

 ---------------------------------------------------------------------------
                  THE BAND WITH NO NAME – Ten Years After
                                (Alvin Lee)
                                Watt [1970]
---------------------------------------------------------------------------

: varannion
Email:     dm_hughes1@hotmail.com

Tuning: standard

'The Band With No Name' is a short (1:36) guitar instrumental comprising 36 
bars: a 4-bar intro and two 8-bar themes, both of which are repeated. Think 
of it as an Alvin Lee meets Ennio Morricone piece. It certainly wouldn't be 
out of place on the soundtrack of a Sergio Leone spaghetti western or even a 
Quentin Tarantino movie.




    12-string acoustic guitar
      Dm
e|----------------------------|--------------------------|
B|----------5--6--5--6--------|--------5--6--5--6--------|
G|-------7--------------7-----|-----7--------------7-----|
D|----7--------------------7--|--7--------------------7--|
A|----------------------------|--------------------------|
E|----------------------------|--------------------------|



      Dm
e|----------------------------|--------------------------|
B|----------5--6--5--6--------|--------5--6--5--6--------|
G|-------7--------------7-----|-----7--------------7-----|
D|----7--------------------7--|--7--------------------7--|
A|----------------------------|--------------------------|
E|----------------------------|--------------------------|
 |  6-string electric guitar w/heavy tremolo
e|----------------------------|--------------------------|
B|----------------------------|--------------------------|
G|----------------------------|--------------------------|
D|----------------------------|--------------------0--2--|
A|----------------------------|-----------------0--------|
E|----------------------------|--------------------------|



      F                          C
e|----------------------------|--------------------------|
B|----------5--6--5--6--------|--------3--5--3--5--------|
G|-------7--------------7-----|-----5--------------5-----|
D|----7--------------------7--|--5--------------------5--|
A|----------------------------|--------------------------|
E|----------------------------|--------------------------|
 |
e|----------------------------|--------------------------|
B|----------------------------|--------------------------|
G|----------------------0-----|--------------------------|
D|----3--------------------3--|--2--0--------------------|
A|----------------------------|--------3--------------0--|
E|----------------------------|--------------------------|



     Dm
e|----------------------------|--------------------------|
B|----------5--6--5--6--------|--------5--6--5--6--------|
G|-------7--------------7-----|-----7--------------7-----|
D|----7--------------------7--|--7--------------------7--|
A|----------------------------|--------------------------|
E|----------------------------|--------------------------|
 |
e|----------------------------|--------------------------|
B|----------------------------|--------------------------|
G|----------------------------|--------------------------|
D|----0-----------------------|--------------------0--2--|
A|----------------------------|-----------------0--------|
E|----------------------------|--------------------------|



      F                          C
e|----------------------------|--------------------------|
B|----------5--6--5--6--------|--------3--5--3--5--------|
G|-------7--------------7-----|-----5--------------5-----|
D|----7--------------------7--|--5--------------------5--|
A|----------------------------|--------------------------|
E|----------------------------|--------------------------|
 |
e|----------------------------|--------------------------|
B|----------------------------|--------------------------|
G|----------------------0-----|----------------

Your Great Name chords – Natalie Grant V5

 Capo 3

Intro
 Em C G D Em C G D 
Lost are saved, find their way at the sound of your great name
        Em C G D 
All condemned feel no shame at the sound of your great name
         Em C G D 
Every fear has no place at the sound of your great name
       Em C G D 
The enemy he has to leave at the sound of your great name

Chorus:
 C G D Em C G D Em      
Jesus worthy is the Lamb that was slain for us, Son of God and man you are
   C G Em D C G D 
high and lifted up and all the world will praise your great name  
 
Verse 2:
          Em C G D 
All the weak find their strength at the sound of your great name
          Em C G D 
Hungry souls receive grace at the sound of your great name
          Em C G D 
The fatherless they find their rest at the sound of your great name
             Em C G D 
Sick are healed and the dead are raised at the sound of your great name
 
(Chorus)

Bridge:
 D Em C G 
Redeemer My healer Lord Almighty   
 D Em C G 
My Savior Defender You are my King (x2)

Chorus

Kill The Rich chords – No Use For A Name V2

 No Use For A Name
Kill The Rich
Feel Good Record Of The Year
2008 Fat Wreck Chords
Submitted by: jeremyunderground41

Key:  E 

Tuning: Standard EADGBe

Chords used:
 E  -    022100
 B  -    x24442
 C#m  -  x46654
 A  -    x02220
 Am  -   x02210
 C  -    x32010
 B/Eb  - x698xx
 F#m  -  244222
 G#m  -  466444


Intro: Plucking
E--B/Eb--C#m--B--C--B--A--F#m-B-


Verse 1:
 E        
  The sky is still falling
          G#m 
is there any end in sight?
     A 
And some are talking to 
               Am 
themselves as missiles
fly through the night
 E 
  But in the beginning there
      G#m 
were words with half a cause
     A 
Now everyone is singing it
     B 
and waiting for the applause


Chorus:
 C#m G#m 
   They don't think about
              A 
you when the payments 
         E 
keep on coming
 F#m 
   But only to use 
           B 
you for a way


Verse 2:
 E 
  To make themselves appear 
         G#m 
like an angel in the room
      A 
They soothe their guilty 
                Am 
conscience and tell it
           E 
what to do Synthetic
compassion and some 
 G#m 
poor mouth bad advice
    A 
To get ahead they lay
             B 
in bed and sleep safe
all through the night


Chorus 2:
 C#m G#m 
   A million to nothing
      A 
like zombies they
     E 
are frightening
 F#m 
   Just smile and
                  B 
wave and pass on by
 C#m G#m 
   Denial is so strong 
         A 
but the guilt just
          E 
keeps it going
 A 
  and gives them a
 B E (hold)
reason to say hi

Under The Garden chords – No Use For A Name

 No Use For A Name
Under The Garden
Feel Good Record Of The Year
2008 Fat Wreck Chords
Submitted by: jeremyunderground41

Key:  D 

Tuning: Standard EADGBe

Chords used:
 Bm  -    x24432
 G  -     320033
 D  -     xx0232
 A  -     x02220
 Em  -    022000
 F#  -    244322
 F#m  -   244222
 F#/Bb  - x143xx
 A/C#  -  x476xx


Verse 1:
      Bm 
On a morning 
      G 
in November you
      A 
were blinded 
        D 
by the sun
 G 
In your place
that makes
             A 
you feel so safe
from everyone
        Bm 
You're totally
   G 
oblivious
    A F#/Bb 
to world poverty
       G 
Not affected by
     F# 
the millions
          Bm A/C# 
that you don't see


Chorus 1:
           G 
And so we toast 
to opportunity
     D 
and talk about the
           A 
weather Although we
never look each other
 Bm 
in the eye We are
 G 
paranoid and out of
           D 
step with every word
that we just said
    A 
We all sound 
fucking crazy and 
 F# 
no one can lie down
             Bm G A D F# 
in their own  bed


Verse 2:
      Bm G 
In a moment you will tell
            A 
us of your own personal
 D A/C# G 
hell    I'm starting to
   Em A 
believe that everyone is
         A (hold)
for themselves We really
 Bm G 
don't have an eternity to
 A 
make our dreams come
 F#/Bb G 
true But thinking for
   F# Bm A/C# 
tomorrow isn't in you


Chorus 2:
       G 
On my way down to the city
       D 
I was looking out the window
 A 
At some point you learned
             Bm 
to look the other way
 F#m G 
We're so desperate it's
              D 
dangerous we basically
have lost our heads
 A 
Responsible for nothing
      F# 
but taking credit
               G A F#/Bb Bm G F#/Bb Bm A 
where ever we can


Chorus 3:
           G 
And so we live under the
 D F#/Bb 
garden where we can hide
                   Bm 
And not smell the dregs of
 A/C# G 
earth Beneath the sun of
          D 
the same planet inherit
 F#/Bb Bm A 
wealth inherit dirt
           G 
And so we live under the
 D F#/Bb 
garden where we can hide
                   Bm 
And not smell the dregs of
 A G 
earth Beneath the sun of
          D 
the same planet inherit
 F#/Bb Bm A 
wealth inherit dirt
           G 
And so we live under the
 D F#/Bb 
garden where we can hide
                   Bm 
And not smell the dregs of
 A G 
earth Beneath the sun of
          D 
the same planet inherit
 F#/Bb Bm A 
wealth inherit dirt