Tag: New Album

How Might I Live Tabs by Real Estate

 Real Estate 
How Might I Live
Atlas

A nice little tune off their new album.  Words and music by Alex Bleeker.

/ = hammer on 
\ = pull off
Here's the intro riff (and the riff played throughout the song):

e|------------------------------------|-------------------------|
B|------------------------------------|-------------------------|
G|------------------------------------|-------------------------|
D|-9--7--5--2---0/2/5---2\0-----2\0---|-9--7--5--2---0/2---5--9-|
A|------------------------------------|-------------------------|
E|---------------------------3------3-|-------------------------|

e|----------------------------|--0--|-------------------------|
B|----------------------------|--0--|-------------------------|
G|----------------------------|--0--|-------------------------|
D|-9--7--5--2---0/2/5---2\0---|--2--|-9--7---5--7-5--7--5-7-9-|
A|----------------------------|--3--|-------------------------|
E|--------------------------3-|--0--|-------------------------|

(G and C are strummed throughout the intro and verse)

G           C              G    G           C               G
How might I live to betray you, how might I live to see the day?

G           C                  G             Cmaj7
How might I live to say you're not the one I love

C           D               G
How might I live to see the day?

That's basically it.  C and G are the chords strummed during the bridge.

Eyes To The Wind chords – The War On Drugs

 Eyes to the Wind - The War on Drugs
from the new album Lost in the Dream

mchernos(at)gmail

Capo 2

Intro:
 F C G F F C 
I'm a sailing down here on the wind
         G F 
when i met you, and I fell away again.
 F C 
Like a train in a verse down a dark road
               G F 
carrying the whole load, just rattling the whole way home.

 F Em G 
Have you fixed your eyes to the wind?
                          Am F C G F 
Will you let it pull you in again, on the way back in
                Em G 
I'm a bit run down here at the moment
                        Am F C G  
Let me think about it babe, 
         F C G F 
let me roll it


  F C 
There's a cold wind blowing down my old road
                                  G 
down the back streets where the pines grow
                          F 
as the river splits the undertoes.
 F                                                
But I'd be lying to myself if I said I didn't mind
          C G 
Leave it hanging on the line, lost inside my head,
                          F 
is this the way I'll be denied again?

 F Em G 
So I'll set my eyes on the wind
                Am F C G 
but it wont be easy to leave it all again.
 F Em G 
Just a bit run down here on the sea
                  Am F C G            
There's just a stranger, living in me


 F F C G  x 4

 F Em G 
As you set your eyes to the wind
                      Am F         
and you see me float away again
           C G 
have you lost it on a friend?
 F Em G 
Just a bit run down here at the moment
          Am F C G 
I'm all alone here, living in darkness.

 F C G F   (x until you're done shredding)

Orange Skies Tabs by Newton Faulkner

 Newton Faulkner- Orange Skies

This is the last song on Newtons new album 'Studio Zoo'. 
I realised that there isn't any tabs for this yet, so I 
had a crack at it and think I've come pretty close 
(without doing the higher or tappy bits.)
The chords refer to what they would be called in 
standard tuning. Enjoy!

No Capo
Tuned Half-Step Down
                                          
Verse Chords                                Chorus Chords
     (A*)     (C#*)    (B*)          (A)      (B)   
e|----5--------9--------7----|  e|----0--------2---|
B|----5--------9--------7----|  B|----2--------2---|
G|----6--------9--------8----|  G|----2--------4---|
D|----7--------11-------9----|  D|----2--------4---|
A|----7--------11-------9----|  A|----0--------2---|
E|----5--------9--------7----|  E|----0--------0---|

Intro- (Listen to song for rhythm) A*, C#*, B*, C#* x2

Verse- (Slightly Dubbed, almost just bass notes)
Continue with A*, C#*, B*, C#*

I was born in 85' and I just want to get some sleep,
I've been away so long oh I just want to rest my feet,
I've been knocked side ways by the people of my frequency,
Where ever I go there is always something there with me..

Chorus- A, B
Home...

Verse 2- (Slightly Dubbed)Continue A*, C#*, B*, C#* 
(Before going back to the chorus play an E)

I have memorized your face so I can always see,
and every time I close my eyes it's you right there smiling back at me,
Even though it's one below and the skies are always grey,
I can feel it in my bones it's London calling me...

Chorus 2- A, B
Home...

Middle 8-
A, E (in time with the changes, I don't know what he actually plays)

Verse 3- Hold A then play A*, C#*, B*, C#* very quietly.

I was born in 85', the years go by, my footsteps fall,
I know inside that every time I walk out that door,
That I'll be back and in my sights I'll find familiar shores,
(and you) See Orange Skies and traffic lights and then you know that you're...

(Raise the volume/ strumming strength for the last chorus)
Chorus 3- A, B
Home...

Then drop out the guitar for the last round of choir singing.

Hope you enjoy playing this tab and find it to be accurate,
Thanks :) x

Tape Deck Chords – Jack Johnson

 From Jack's new album. Enjoy!
It's a bit tricky at first, but listen to the song to work through all the rough spots. 
Hope it helps out!
-----------------------------------------------------------------------------
Capo 1

Intro:  A D D E A D D E A D 
From my tape deck there's a recklessness
         D E 
Inflections of the world we want
         A D 
All my friends, my rusty truck
        D E 
We're just specks of love, directionless
        A D 
Call this band just what we want
         D E 
We can change the name from month to month
        A D 
Four guitars and zero drums
        D E D 
We sounded folk but we wanted to be punk
 E D E 
In a world post punk

         A D 
My friend had an old guitar
        D E 
He took some lessons didn't get very far
       A D 
An Ibanez with one knob stuck
      D E 
Said, "You can have that thing for fifty bucks"
      A D 
Laura got a bass but it got no amp
       D E 
Borrowed skills but never gave it back
    A D 
Luke is just learning how to strum
     D E D 
But since he was the worst, we made him play the drums
 E D E 
Play the drums


      A 
You may find
      D 
In the palm
      E 
Of your hand
      D 
There's a flame
      A 
As it burns
      D 
As it climes
       E 
As it turns
       D 
To a blaze
       A 
Well this flame
       D 
It won't last
        E 
Here it comes
        D 
Hold it close
        A 
Cause this blaze
        D 
Can be fast
        E D 
Set it free now there it goes

Instrumental:  A ,  D E ,  D ,  E ,  A ,  D ,  D ,  E A D 
Luke's mom said that after school
    D E 
We could rehearse in the living room
    A D 
But that sure didn't last too long
   D E 
Guess she didn't know we'd play Fugazi songs
    A D 
We played these songs in the talent show
    D E 
And all of the girls would be in the front row
    A D 
But in the end we just chickened out
 D E D 
Because we can't sing, we can only shout
 E D E 
Only shhh


     A 
You may find
      D 
In the palm
      E 
Of your hand
      D 
There's a flame
      A 
As it burns
      D 
As it climes
       E 
As it turns
       D 
To a blaze
       A 
Well this flame
       D 
It won't last
        E 
Here it comes
        D 
Hold it close
        A 
Cause this blaze
        D 
Can be fast
        E D 
Set it free now there it goes

Instrumental:  A ,  D E ,  D ,  E ,  A ,  D ,  D</spa

As I Was Saying Chords – Jack Johnson

 As I Was Saying by Jack Johnson off his new album “From Here to Now to You”

Standard tuning. NOTE: Barre chords sound the BEST here. You can still use the regular 
chords but barre chords create that Jack Johnson sound we all love.

Capo 1st fret

INTRO
 F#m 

VERSE
 A Em 
As I was saying
                           D 
Just before you left the room
        A 
Before I assumed
       G D A 
That you might not come around

 A Em 
As I was saying
                    D 
Just after I took my foot from
     A G 
My mouth and put it back
 D A 
On the ground

CHORUS
 D E 
I don't want to disappoint you
 A D 
I don't want to disappear
       Bm E A 
From here or now or you

VERSE
 A Em 
This is worth saving
                           D 
Because the sum of us is more than us
        A 
If you add us up


           G D A 
Then subtract my lack of sleep

 A Em 
My mind feels crazy
                              D 
When all these thoughts come rushing in
               A 
Should I be trusting them
    G D A 
Or only let them be?

CHORUS
 D E 
I don't want to disappoint you
 A D 
I don't want to disappear
       Bm E A 
From here or now or you

BRIDGE
 Bm E 
Is it just a matter of time?
 Bm C# 
Or does it even matter at all?
 D A Bm 
Because even if this story should fall
            D A 
From the sky to the sea
 A Bm 
If I should fall
            D F#m 
Would you fall down with me?
                E 
Would you fall?

VERSE
 A Em 
Found my foundation
                      D 
It was underneath me all alone
 A 
On this path I'm on,
        G D A 
Now I never walk alone

 A Em 
I've been erasing
                     D 
Rewrote the second half like this
           A 
So my protagonist
        G D A 
Might find his way back home

CHORUS
 D E 
I don't want to disappoint you
 A D 
I don't want to disappear
       Bm E A 
From here or now or you
              Bm E A 
No not from here or now or you

Follow Your Heart Chords – Anthem Lights

 Hey guys! This tab is for Anthem Lights' beautiful, new song "Follow Your Heart" 
from their new album "You Have My Heart". I got the lyrics by ear (with a little 
help from the Official Lyric Video) and the chords by ear. Thanks for viewing and 
God bless! ;)

*IF YOU DON'T WANT TO REACH FOR THE "F" CHORD: You can lower it five half steps 
and play it with CAPO on the 5th fret. :D


                    ANTHEM LIGHTS - Follow Your Heart
                            STANDARD tuning

Intro:  C G Am F C G 
Some say follow your own heart
     Am F 
And it will never lead you astray
 C G 
Some say chase your own dreams
        Am F 
That's all that matters anyway

            C 
Well I've been there, done that
  G 
Tried that, lived that 
 Am F 
Way like it was all for me
        C               
And I came back, found out
  G 
Truth is, turns out
    Am F 
To get me where I'm meant to be


                    F 
I've gotta follow Your heart
      C G Am 
If anything is gonna count in this life
                    F 
I've gotta follow Your heart
         C G Am 
If I'm ever gonna make a mark on eternity
          F C 
So let Heaven's heartbeat always move me
  G Am F C          
Let my only prayer be to follow Your heart
                 G Am 
Help me follow Your heart


 C G 
I don't need a second opinion
  Am F 
You just say the word, I'll go
     C G 
And I don't need any convincing
     Am F 
To walk along the narrow road

            C 
'Cause I'm all in, sold out
  G 
Can't turn back now
  Am F 
These are more than empty words
           C 
For the things that I want
  G 
I'll trust, You got
  Am F 
I'll just keep the first thing first


                    F 
I've gotta follow Your heart
      C G Am 
If anything is gonna count in this life
                    F 
I've gotta follow Your heart
         C G Am 
If I'm ever gonna make a mark on eternity
          F C 
So let Heaven's heartbeat always move me
  G Am F C          
Let my only prayer be to follow Your heart
                 G Am 
Help me follow Your heart


 Am F 
  I'll count it all as joy
    C G 
To give this life away
 Am F 
  There's not a cost too high
     C G 
Or price that I won't pay
            Am F 
To follow Your heart
         C G 
Follow Your heart
               Am F 
Gotta follow Your heart
                 C G 
Help me follow Your heart


                    F 
I've gotta follow Your heart
      C G Am 
If anything is gonna count in this life
                    F 
I've gotta follow Your heart
         C G Am 
If I'm ever gonna make a mark on eternity
          F C 
So let Heaven's heartbeat always move me
  G <sp

First Time Caller Acoustic Chords – White Lies

 Band: White Lies 
Song: First Time Caller - acoustic version 
Tabbed by: Martin. 
The new song from the new album, love it very much :)

Chords:  F D Dm C Bb Am G Gm F Dm C Bb                       x2


 F Dm                          
Darling, we're starting, she said
 C Bb 
      We go alive in a heartbeat
 F Dm                                
Waiting for something in my car
 C Bb             
      A little hope out of nothing
 Dm 
      Through the hum on the line


Chorus    
                  F C 
She said I was a first time caller
       Bb Dm Am 
But a long time listener
                     C G Bb 
I've been waiting a while to talk to you          x2


 F Dm C Bb F Dm                            
Falling like trash from the sky
         C Bb 
I hit a patchwork of loneliness, crooked and wild
 F Dm                            
Hung from the stars and dropped through the night
      C Bb                
To a heatwave in hard place-lessness, neon tiles
 Dm 
      And I got nothing but time


Chorus    
                  F C 
She said I was a first time caller
       Bb Dm Am 
But a long time listener
                     C G Bb 
I've been waiting a while to talk to you          x2


 Dm F Bb 
      I want you to love me
 F Gm 
More than I love you
 Dm C Dm 
Tell me if that's something you can do            x2


Scarecrow Tabs by Decyfer Down

 Song: Scarecrow
Band: Decyfer Down
Album: Scarecrow

I absolutely love this band! This new album has a very different sound
from their last one, but I like it. Let me know what you think. Please rate
and comment :)

~ bend
p pull off

Intro:

D--------------------------------------------------------|
A--------------------------------------------------------|
F--------------------------------------------------------|
C--------------------------------------------------------| 2x
G----5-----3-----3-----------5-----3-----3---------------|
C------7~-7--6~-6--5~-53-5~-5--7~-7--6~-6--5~-53-5~-5----|


D---------------------------------|
A---------------------------------|
F----5-7---------10-7-------------|
C----5-7--0--0--010-7--0--0--0----| 2x
G----3-5--0--0--08--5--0--0--0----|
C---------0--0--0------0--0--0----|


Verse:

D-------------------------------|
A-------------------------------|
F----5-7--------10-7------------|
C----5-7--0-0--010-7--0-0--0----| 8x
G----3-5--0-0--08--5--0-0--0----|
C---------0-0--0------0-0--0----|


Pre-chorus:

D--------------------------|
A--------------------------|
F--------------------------|
C--------------------------| 4x
G--------------------------|
C----5-35-35-35-10~---8~---|


Chorus:

D------------------------------------------------------------------|
A------------------------------------------------------------------|
F---------------------------------5--5-5-5-5-5-5-4--4-4-4-4-4-4----|
C----0--0-0-0-0-2--3--3-3-3-3-3-3-5--5-5-5-5-5-5-4--4-4-4-4-4-4----| 2x
G----0--0-0-0-0-2--3--3-3-3-3-3-3-3--3-3-3-3-3-3-2--2-2-2-2-2-2----|
C----0--0-0-0-0-2--3--3-3-3-3-3-3----------------------------------|

D--------------------------------------------------------------|
A--------------------------------------------------------------|
F----3--3--3-3--3--3--3--3-3--3--5--5--5-5--5--5--5--5-5--5----|
C----3--3--3-3--3--3--3--3-3--3--5--5--5-5--5--5--5--5-5--5----|
G----1--1--1-1--1--1--1--1-1--1--3--3--3-3--3--3--3--3-3--3----|
C--------------------------------------------------------------|


Post-chorus:

Guitar 1
D----10~------8~----8~--------------|
A-------10~-10--9~-9--8~-86-8~-8----|
F-----------------------------------|
C-----------------------------------| 2x
G-----------------------------------|
C-----------------------------------|

Guitar 2
D--------------------------------------------------------|
A--------------------------------------------------------|
F--------------------------------------------------------|
C--------------------------------------------------------|
G----5-----3-----3-----------5-----3-----3---------------|
C------7~-7--6~-6--5~-53-5~-5--7~-7--6~-6--5~-53-5~-5----|


Verse

Pre-chorus

Chorus

Post-chorus


Bridge:

D-----------------------------------------------------------|
A-----------------------------------------------------------|
F-----------------------------------------------------------|
C-----------------------------------------------------------| 2x
G---------------3------------------------3------------------|
C----6-66666-666-6-66666-6653-6-66666-666-6-66666-5-3-------|

D---------------------------------|
A---------------------------------|
F----5-7---------10-7-------------|
C----5-7--0--0--010-7--0--0--0----|
G----3-5--0--0--08--5--0--0--0----|
C---------0--0--0------0--0--0----|

D--------------------------------|
A--------------------------------|
F----5-7---------10-7------------|
C----5-7--0--0--010-7------------| 2x
G----3-5--0--0--08--5-------3~---|
C---------0--0--0------05p30-----|


Chorus 2x

Post-chorus 2x and slide down from last note to end song


That's all. Keep rockin' and God bless :)

Enough Chords – Tricia

 Hey guys! This tab is for Tricia's song "Enough" from her new album "Radiate". I 
got this tab by ear so feel free to correct me! Thanks for viewing! ;)

Tricia's Official Website: http://triciabrockmusic.com/
                            

                             TRICIA - Enough
                                CAPO on 1
Intro:

      C G Em C G Em 
e|---------------------------------------------------------|
B|---------------------------------------------------------|
G|---------0--------0-----0--0-----------0--------0-----0--|
D|------2--------4-----4--------4-----2--------4-----4-----|
A|---3--------5--------------------3--------5--------------|
E|---------------------------------------------------------|


  C G Em 
Wish I didn't always compare myself 
  C G Em 
Wanting what You give to somebody else 
  C G Em 
Wish that I felt a little more content 
        C G Em 
Just being me, just being me 
  C G Em 
Wish I wasn't stuck on what's going wrong 
  C G Em 
Wish I'd just enjoy this ride I'm on 
  C G Em 
Remember how good You've always been 
       C D 
Cause I believe, I believe 


       C G 
It's enough that You know what I'm needing 
      Em D 
It's enough just to go where You're leading 
          C G 
Keep my feet on the path and my empty hands
 Em D 
Always reaching up 
          C G 
It's enough just to breathe in the moment 
       Em D 
And wherever I am I can know this 
       C  
If I have nothing else 
         G Em D 
I will always have Your love, Your love
                  C G              
And that's enough, that's enough
      Em C G D 
Oh, that's enough 


 C G Em 
Gonna be days when I'm falling short
  C G Em  
Missing every dream that I'm reaching for
        C G Em  
When nothing in life is going like
    C G Em 
I wish it would, I wish it would 
     C G Em 
But I know even when it falls apart 
 C G Em 
You are still God and You hold my heart 
 C G Em                                 
This is the valley, but You're taking me to
  C D 
Somewhere good, somewhere good 


       C G 
It's enough that You know what I'm needing 
      Em D 
It's enough just to go where You're leading 
          C G 
Keep my feet on the path and my empty hands
 Em D 
Always reaching up 
          C G 
It's enough just to breathe in the moment 
       Em D 
And wherever I am I can know this 
       C  
If I have nothing else 
         G Em D 
I will always have Your love, Your love
                  C G              
And that's enough, that's enough
      Em C G 
Oh, that's enough


     Em C G 
To lift my eyes and to calm my soul 
     Em C</spa

Radiate Chords – Tricia

 Hey guys! This tab is for Tricia's song "Radiate" from her new album "Radiate". I 
just got this song by ear so feel free to correct me! Also, check out my tab for 
Tricia's song, "Enough"! Thanks people! ;D

Tricia's Official Website: http://triciabrockmusic.com/

                            TRICIA - Radiate
                            STANDARD tuning

Intro:  Bm G D A Bm 
Storm clouds in the sky
 G 
Perfect weather said goodbye
 D A 
  And you ask me am I okay
 Bm 
Isn't it obvious
 G 
Looking like I'm such a mess
 D A 
  Not gonna let it ruin my day
       Bm        
With glitter sparkle rain boots
  G 
Ready to jump into
 D 
  Bring on the hurricane
 A 
  Whatever comes my way


 Bm 
  Not gonna let the rain
 G 
Let the rain bring me down
 D 
  You make sunshine
      A  
And push the clouds out the way
 Bm 
  Not gonna let the rain
 G 
Let the rain bring me down
 D 
You can be my sunshine
 A 
  And we can radiate
 Bm D A G  
  Oh, oh, oh
 Bm D A G  
  Oh, oh, oh


 Bm 
You should really know by now
 G 
This would never bring me down
 D A 
  But still you ask me am I okay
     Bm 
So let me make it obvious
 G 
Even if I'm still a mess
 D A 
  I'll be standing with a smile on my face
 Bm 
Waiting on a rainbow
 G 
Waiting while the wind blows
 D A 
  With my polka dot umbrella, ella


 Bm 
  Not gonna let the rain
 G 
Let the rain bring me down
 D 
  You make sunshine
      A  
And push the clouds out the way
 Bm 
  Not gonna let the rain
 G 
Let the rain bring me down
 D 
You can be my sunshine
 A 
  And we can radiate
 Bm D A G  
  Oh, oh, oh
 Bm D A G  
  Oh, oh, oh


              Bm G D A 
And when the sun goes down You radiatiate
               Bm G D A 
And when the rain comes down You radiatiate
               Bm G 
And when the sun goes down You radiatiate
              D A 
And when the rain comes down You radiatiate
              Bm G 
And when we all fall down You radiatiate
             D A 
And when we hit the ground You radiatiate


 Bm 
  Not gonna let the rain
 G 
Let the rain bring me down
 D 
  You make sunshine
      A  
And push the clouds out the way
 Bm 
  Not gonna let the rain
 G 
Let the rain bring me down
 D 
You can be my sunshine
 A 
  And we can radiate

 Bm 
  Not gonna let the rain
 G 
Let the rain bring me down
 D 
  You make sunshine
      A  
And push the clouds out the way
 Bm 
  Not gonna let the rain
 G 
Let the rain bring me down
 D 
You can be my sunshine
 A 
  And we can radiate
 Bm D A G  
  Oh, oh, oh
 Bm D A G  
  Oh, oh, oh And we can radiate
 Bm</s

Since We Broke Up Tabs by Bowling For Soup

 Song: Since We Broke Up
Artist: Bowling For Soup
Album: Lunch. Drunk. Love.
Year: 2013

The new album is great.  Figured I'd start tabbing some of my favorites.


Intro:

e|----7---------------3---------------3---------------2-----------------------|
B|----8---------------5---------------3---------------3-----------------------|
G|----9---------------5---------------4---------------2-----------------------|
D|----9---------------5---------------5---------------0-----------------------|
A|----7---------------3---------------5---------------------------------------|
E|------------------------------------3---------------------------------------|


Distorted Intro:

e|---------------------------------------------------------------------------|
B|---------------------------------------------------------------------------|
G|------------------------------------5---5---------x-7---7------------------|
D|----5---5---------x-2---2-----------5---5---------x-7---7------------------|
A|----5---5---------x-2---2-----------3---3---------x-5---5------------------|
E|----3---3---------x-0---0--------------------------------------------------|

e|---------------------------------------------------------------------------|
B|---------------------------------------------------------------------------|
G|------------------------------------5---5---------x-7----------------------|
D|----5---5---------x-2---2-----------5---5---------x-7----------------------|
A|----5---5---------x-2---2-----------3---3---------x-5----------------------|
E|----3---3---------x-0---0--------------------------------------------------|


Muted Verse:

e|---------------------------------------------------------------------------|
B|---------------------------------------------------------------------------|
G|------------------------------------5---5---------x-7---7------------------|
D|----5---5---------x-2---2-----------5---5---------x-7---7------------------|
A|----5---5---------x-2---2-----------3---3---------x-5---5------------------|
E|----3---3---------x-0---0--------------------------------------------------|
Mute: *   *           *   *           *   *           *   *


Muted Verse 2:

e|---------------------------------------------------------------------------|
B|---------------------------------------------------------------------------|
G|------------------------------------5---5---5---5---7---7---7---7----------|
D|----5---5---5---5---2---2---2---2---5---5---5---5---7---7---7---7----------|
A|----5---5---5---5---2---2---2---2---3---3---3---3---5---5---5---5----------|
E|----3---3---3---3---0---0---0---0------------------------------------------|
Mute: *   *   *   *   *   *   *   *   *   *   *   *   *   *   *   *


Unmuted Verse (Guitar 1):

e|---------------------------------------------------------------------------|
B|---------------------------------------------------------------------------|
G|------------------------------------5---5---------x-7---7------------------|
D|----5---5---------x-2---2-----------5---5---------x-7---7------------------|
A|----5---5---------x-2---2-----------3---3---------x-5---5------------------|
E|----3---3---------x-0---0--------------------------------------------------|


Unmuted Verse (Guitar 2):

e|------------3---------------3---------------0---------------2--------------|
B|--------3-------3-------3-------3-------1-------1-------3-------3----------|
G|---------------------------------------------------------------------------|
D|----------------------------------------------------0----------------------|
A|------------------------------------3--------------------------------------|
E|----3---------------0------------------------------------------------------|


Unmuted Verse 2 (Guitar 1):

e|---------------------------------------------------------------------------|
B|----------------------------------------------------------------

Better Days Chords – Edward Sharpe And The Magnetic Zeros V3

 I decided since nobody else seemed to be doing the chords for the new album, to 
have a go myself and simplify them for novice players.

Capo 2.

Edward Sharpe and the Magnetic Zeros - Better Days.


          C                                                       
Ive seen better days, dripping down your face
          Dm 
We don’t have to talk, let’s dance
     G Dm 
For all the times you felt alone, dreaming better
                      C 
I see better, better days

 C Dm 
Too dumb to say goodbye thats some cliché shit, make me wanna cry
                G Dm 
Just know that every time I look in your eye, I see better, I see better, better days

 F C Am G 
        Try to remember, that you cant forget
 F C Am G 
        Down with history, up with your head
 F C Am G  
        For sweet tomorrow, she never fell from grace
 F C Am G 
        We might still know sorrow, but we got better days

        C                                         
I seen better ways, some won’t believe
             Dm 
But I don’t need much more than faith
     G 
For all the times you felt alone
          Dm C 
Dreaming better, dreaming better, better ways
        
 C Dm 
Too dumb to say goodbye, now that’s some give up shit, make me wanna cry
                         
                G Dm   
Just know that every time I look in your eye, I see better, I see better, better days

 F C Am G 
        Try to remember, that you cant forget
 F C Am G 
        Down with history, up with your head
 F C Am G  
        For sweet tomorrow, she never fell from grace
 F C Am G 
        We might still know sorrow, but we got better days

Better days.
Guess who's back in town. 

Head On Chords – Man Man V2

 Single for the new album, On Oni Pond, out September 10th, 2013.

Chord progression is very basic and stays consistent throughout the song.
You can play the bass notes and drop them down easily also, sort of like this:

           G F#/G Em D (riff)
e|-----------------------------------------------------|
B|-----------------------------------------------------|
G|---------------------------------2-------------------|
D|--------0------------2-----0-2-4---------------------|
A|--------2------2-----2-------------------------------|
E|--------3------2-----0-------------------------------|

or do whatever you like to incorporate the riffs and bass parts in.
Anyways, main chords are:

 G Bm Em D    (repeat)

and the organ/synth solo is pretty basic in key, but you can jazz it up a bit
to make it sound like it belongs on guitar.

Support this amazing experimental rock band- 
they don't get enough credit- by buying their album on September 10th! 
And if you ever have the chance, see them live 
they're one of the craziest an awesomest bands ever in that category.

Have fun!

-BrightEyes577



There's a knock at your door
You don't even recognize the stranger
It's you from before
Trying to warn you all about the dangers
There's a hole in your head
At least that's what everybody's guessing
It's why you're always misread
It's why you sleep but you never feel rested
You never get your rest in

Hold onto your heart
Hold it high above flood waters
Hold onto your heart
Never let nobody drag it under
Hold onto your heart
Even when your body's bitter
Hold onto your heart
Never let nobody take it over
Ever it take it over
Ever it take it over from you

There's a call on the phone
You don't even recognize the number
It's an old episode
Of trying to put the lightening on the monster
Of the life you have led
That is always a mess
Are you dreaming of death?
Are there ghosts in your chest?
Are you always so restless?
Yes you are
Is that hard?

Hold onto your heart
Hold it high above flood waters
Hold onto your heart
Never let nobody drag it under
Hold onto your heart
Even when your body's bitter
Hold onto your heart
Never let nobody take it over
Ever it take it over
Ever it take it over from you

Is it all a game of bait and switch your brains
And follow your leaders to hell
Is it all the same vein of insane
As drinking from a poisoned well
And I need new skin for this old skeleton of mine
Cause this one that I'm in has let me down once again over time
And I need new skin for this old skeleton of mine
Cause this one that I'm in has let me down once again over time

Hold onto your heart
Hold it high above flood waters
Hold onto your heart
Never let nobody drag it under
Hold onto your heart
Even when the whole world's bitter
Hold onto your heart
Never let nobody take it over
Ever it take it over
Ever it take it over...
Ever it take it over from yo

Oceandust Chords – Hands Like Houses V2

 Hey guys this is my first tab, so I decided to pick a pretty easy one. This is a 
beautiful song off of Hands Like Houses' new album "Unimagine." Please rate! Thanks. - Peyton

 Fm B#m 
There's no more wind to be found
 C#7 
In the sails
 Fm B#m 
Hands full of falling stars
          C#7 
And comet tails

 Fm        
Rivers of sand
       B#m C#7 
All entwined through my hands
 Fm 
To know what they've seen
         B#m C#7 
Well my burden's all pale
 Fm  (let ring)                   B#m C#7 
I'll make an hourglass from my fingers
 Fm B#m C#7 
I know I'm only passing through

(repeat through chorus and whole song)

I don't want to pretend

That I'm stronger for it all

I don't want to pretend

That the sadness is gone

'Cause I want to know that I'm steady on my feet

I don't want to pretend

So peace will be real to me

There's no respite to be found

In the waves

Each rise and retreat will scrub the blood away

I'll make an hourglass from my fingers

I know I'm only passing through

I don't want to pretend

That I'm stronger for it all

I don't want to pretend

That the sadness is gone

'Cause I want to know that I'm steady on my feet

I don't want to pretend

So peace will be real to me

I don't want to pretend

That I'm stronger for it all

I don't want to pretend that the sadness is gone

I don't want to pretend

That I'm stronger for it all

I don't want to pretend that the sadness is gone

'Cause I want to know that I'm steady on my feet

I don't want to pretend

So peace will be real to me

Goddamn Tabs by Falling In Reverse

 -------------------------------------------------------------------------------
                             Goddamn-Falling in Reverse
-------------------------------------------------------------------------------

This is the guitar tab for Goddamn by Falling in Reverse. This song is on their new 
album fashionably late, which I really like. This tab is missing the solo, as I am still 
working on it. As soon as I get it done, I will put it up. My youtube is 
http://www.youtube.com/channel/UCfvjnOjnkomKgEFPsI2hwNg/videos

I will soon be putting up a guitar cover of this song.



Intro

D|-----------------|
A|-----------------|
F|-----------------|
C|--9-7--0-5-9-7-0-|
G|--9-7--0-5-9-7---|
C|--9-7--0-5-9-7-0-|
        . .
Verse 1

D|-------------------------------------------------------|
A|--7-----7----------------------------------------------|
F|-----7-----7--9--7--9--7-----7-------------------------|
C|--------------------------9----X3----7-7-7-7-5-5-5-5---|
G|-------------------------------------7-7-7-7-5-5-5-5---|
C|-------------------------------------7-7-7-7-5-5-5-5---|

CHORUS

D|-----------------------------------------------------|
A|-----------------------------------------------------|
F|-----------------------------------------------------|
C|--0--0------0-0----5--5----5--5----9-----7-----5-----|
G|--0--0------0-0----5--5----5--5----9-X4--7-X4--5-----|X8
C|--0--0------0-0----5--5----5--5----9-----7-----5-----|

D|--------------|
A|--------------|
F|--------------|
C|--0--5--9--7--|
G|--0--5--9--7--|
C|--0--5--9--7--|
    .  .

Verse 2

D|------------------------------------------------------|
A|--7-----7---------------------------------------------|
F|-----7-----7--9--7--9--7-----7------------------------|
C|--------------------------9----X3----7-7-7-7-5-5-5-5--|
G|-------------------------------------7-7-7-7-5-5-5-5--|
C|-------------------------------------7-7-7-7-5-5-5-5--|

D|---------------------------------------|
A|---------------------------------------|
F|--------------------------------X3-----|
C|--0--0--0--0--0--5--5--5--5--5------7--|
G|--0--0--0--0--0--5--5--5--5--5------7--|
C|--0--0--0--0--0--5--5--5--5--5------7--|

    .  .  .  .  .  .  .  .  .  .

Chorus 2


D|-----------------------------------------------------|
A|-----------------------------------------------------|
F|-----------------------------------------------------|
C|--0--0------0-0----5--5----5--5----9-----7-----5-----|
G|--0--0------0-0----5--5----5--5----9-X4--7-X4--5-----|X8
C|--0--0------0-0----5--5----5--5----9-----7-----5-----|



Solo(working on it still)

D|-----------------------------------------|
A|--/17--15--14----------------------------|
F|--------------14--------------------14---|
C|------------------16-----------/12-------|
G|----------------------17--12-------------|
C|-----------------------------------------|


E|--------------------------|
B|--------------------------|
G|--------------------------|
D|--9--9-----7--7-----5--5--|
A|--9--9-----7--7-----5--5--|
E|--9--9-----7--7-----5--5--|

*Repeat chorus

D|--------------|
A|--------------|
F|--------------|
C|--0--5--9--7--|
G|--0--5--9--7--|
C|--0--5--9--7--|
    .  .

Fear Acoustic Chords – Blue October

 This is the Acoustic version of "Fear" by Blue October.  This song was released 
today, 8/22/13 on their new "Debris" Acoustic EP.  You can find the original song 
on the new album "Sway."

This song is originally A, E, D, F#m.  I am very, very new to the guitar and the 
F#m was just too difficult for me to play, so this is transposed a step down.

Standard Tuning
Use Capo 2 

 G 
All my life
                     D 
Been running from a pain in me
                   C 
A feeling I don't understand
             D 
Holding me down
       G 
So, rain on me, Underwater

 D 
All I am, getting harder
    C 
A heavy weight
            D   
I carry around.

 C 
Today
 Em D C  
I don't have to fall apart
 Em D C  
I don't have to be afraid
 Em D C  
I don't have to let the damage consume me, my shadow see through me

 C D 
Fear in itself
               Em D 
Will reel you in and spit you out
                C 
Over and over again
                 D 
Believe in yourself
                 G 
And you will walk
 C D 
Fear in itself
              Em D 
Will use you up and break you down
                      C 
like you were never enough
                D G 
Yeah I used to fall, now I get back up.

 G 
I'm up here
                    D 
I'm looking at the way down there
                             C 
And I'm staring through the I don't care
              D 
It's staring back at me
              G 
You see, the beauty is
                     D 
I'm learning how to face my beast
                 C 
Starting now to find some peace
            D 
Set myself free, yeah

 C 
Today
 Em D C  
I don't have to fall apart
 Em D C  
I don't have to be afraid
 Em D C  
I don't have to let the damage consume me, my shadow see through me cause


 C D 
Fear in itself
               Em D 
Will reel you in and spit you out
                C 
Over and over again
                 D 
Believe in yourself
                 G 
And you will walk
 C D 
Fear in itself
              Em D 
Will use you up and break you down
                     C 
like you were never enough 
                D G 
Yeah I used to fall, but now I get back up.

                     D 
You see, I'm moving on
                  Em D 
Oh god just move on
 G 
La, ha-ah ha-ah, ha
 D 
La, ha-ah ha-ah, ha
 C D 
La, ha-ah ha-ah, ha


 C 
Today
 Em D C  
I don't have to fall apart
 Em D C  
I don't have to be afraid…
              C 
And get back up
     D Em D 
Get up, up
 C D 
Fear, Fear
 G 
Oh, no no no
 C D Em 
Fear, fear in itself will use you up
                   D C 
And it breaks you down just like you're never enough
                 D G 
Yeah, I used to fall
    G 

Vertical Chords – 1 Girl Nation

 Hey guys! This tab is for 1 Girl Nation's "Vertical"! It's my favorite song off 
their new album "1 Girl Nation". Check out my tab for "While We're Young" as well. 
Thanks and enjoy! 


                        1 GIRL NATION - Vertical
                              CAPO on 4


Intro:  Em C G D Em C 
  All the broken, all the hopeless
 G D 
  Strangers in need
 Em C                  
  They are with us, they are Jesus
 G D 
  All the least of these 
 Em C G D 
Oh Oh Oh Lord how we need Your strength to stand
 Em C G D 
Oh Oh Oh Lord help us be Your feet and hands


               Em C 
We're going vertical, praying for miracles
             G D 
Wanna see Heaven here on earth
              Em C 
Lifting our hands up high, people of God unite
          G D 
Together we can change this world
               Em C 
We're going vertical Oh Oh Oh
               G D 
We're going vertical Oh Oh Oh
               Em C 
We're going vertical, praying for miracles
             G D 
Wanna see heaven here on earth


 Em C                
  All my brothers, all my sisters
 G D 
  Children of God
 Em C               
  We're His reflection, a generation
 G D 
  Called to share His love
 Em C G D 
Oh Oh Oh Lord how we need Your strength to stand
 Em C G D 
Oh Oh Oh Lord help us be Your feet and hands


               Em C 
We're going vertical, praying for miracles
             G D 
Wanna see Heaven here on earth
              Em C 
Lifting our hands up high, people of God unite
          G D 
Together we can change this world
               Em C 
We're going vertical Oh Oh Oh
               G D 
We're going vertical Oh Oh Oh
               Em C 
We're going vertical, praying for miracles
             G D 
Wanna see heaven here on earth


 Em C       
  Oh Oh People put your hands up
  G D 
Wave them in the air gonna show the world His love [4x]


Instrumental:  Em C G D   [2x]


               Em C 
We're going vertical, praying for miracles
             G D 
Wanna see Heaven here on earth
              Em C 
Lifting our hands up high, people of God unite
          G D 
Together we can change this world
               Em C 
We're going vertical Oh Oh Oh
               G D 
We're going vertical Oh Oh Oh
               Em C 
We're going vertical, praying for miracles
             G D 
Wanna see heaven here on earth
              Em 
We're going vertical


~julieeheeart08 ;)

Crimson Day Chords – Avenged Sevenfold

 SONG:   Crimson Day
ARTIST: Avenged Sevenfold
ALBUM:  Hail to the King

/*
this is a song from A7X new album Hail to the King.
the clean guitar parts follows some irregular pattern of fingerpicking, not complex, you 
can easily play it just by listening to the song (i hope so... :P)
the chords on the 'distorted guitar' parts are for acoustic guitar players. eletric 
guitar players should play power chords on these parts.
if you are playing an acoustic guitar, you may want to play D9 or D/F# where there's a D 
chord, it may sound better.
I haven't tabbed the solo yet. It looks like an easy solo, so I might tab it later
I think it's kinda accurate, if you find anything wrong, just leave a comment :)
*/



KEY: G

INTRO:  Em D G C Am D Em 


/*clean guitar*/
 Em D/F# G C 
Darkness brought endless rain,
 Am D Em 
out in the cold I lost my way,
 Em D/F# G C 
but storms won't last to clear the air, for something new,
     Am D Em 
the sun came out and brought you through,

 Am Em 
a lifetime full of words to say,
 D C 
I hope that time will slow the passing day.


/*distorted guitar*/
 Em D/F# G G/B C G 
I've been wrong times over,
 C G 
and I've been shamed with no words to find,
             Bm Em D 
but if the sun will rise, bring us tomorrow,
 C G/B Am Am/G D 
walk with me, crimson day.

 G/C G/B D/A G D/F# 


/*clean guitar*/
 Em D/F# G C 
Don't speak, no use for words,
 Am D Em 
lie in my arms sleep secure,
 Em D/F# G C 
I wonder what you're dreaming of, lands rare and far,
   Am D Em 
a time must fly to reach the stars,

 Am Em 
a lifetime full of words to say,
 D C 
I hope that time will slow the passing day.


/*distorted guitar*/
 Em D/F# G G/B C G 
I've been wrong times over,
 C G 
and I've been shamed with no words to find,
             Bm Em D 
but if the sun will rise, bring us tomorrow,
 C G/B Am Am/G D 
walk with me, crimson day.

 G/C G/B D/A 


SOLO:  C Em  (x4)


/*clean guitar*/
 Am Em 
I've come so far to meet you here,
     D C 
to share this life with the one I hold so dear,
 Am Em 
and I won't speak but what is true,
      D C 
the world outside created just for you,
      D C 
is for you, for you...


/*distorted guitar*/
 C G 
I've been wrong times over,
 C G 
and I've been shamed with no words to find,
             Bm Em D 
but if the sun will rise, bring us tomorrow,
 C G/B Am Am/G D 
walk with me, crimson day.

 G/C G/B D/A C G

Darkest Side Of Hell Tabs by Inspired But Divided

 Inspired But Divided
The Darkest Side of Hell
From the Album Reflect

You can Listen to the track @

Or you can contact Red-District.com to buy our new album

Intro
e:--------------------------------------------|
b:--------------------------------------------|
g:--------------------------------------------|
D:--------------------------------------------|
A:-------0-3-0---------5-----5----------------|
D:-0-3-5-------5-3-0-3---0-3------------------|

e:--------------------------------------------|
b:--------------------------------------------|
g:--------------------------------------------|
D:--------------------------------------------|
A:-------0-3-0---------7-----7----------------|
D:-0-3-5-------5-3-0-3---0-3------------------|
THESE TWO CAN BE A BIT OF A STRETCH
e:--------------------------------------------|
b:--------------------------------------------|
g:--------------------------------------------|
D:--------------------------------------------|
A:-------0-3-0---------8-----8----------------|
D:-0-3-5-------5-3-0-3---0-3------------------|

e:--------------------------------------------|
b:--------------------------------------------|
g:--------------------------------------------|
D:--------------------------------------------|
A:-------0-3-0---------000--------------------|
D:-0-3-5-------5-3-0---000--------------------|

Guitar 1
e:-----------------------------------------------|
b:-----------------------------------------------|
g:-----------------------6-10-9------------------|
D:---------2-----------8--------8----------------|
A:-5-0-1-4---3-------7------------7--------------|
D:-------------5-0-5-----------------------------|

Guitar 2
e:--------------------------------------------|
b:--------------------------------------------|
g:-------------------------10-14-10-----------|
D:---------5------------12----------12--------|
A:-8-0-5-7---7-------10----------------12-----|
D:-------------8-0-8--------------------------|

Verse 1
e:---------------------------------------------------------- |
b:--------------------------------------------            -- |
g:--------------------------------------------            -- |
D:-000-000-1p0-000-000-000-3p0-000-000-000-6p5-000------- -- |
A:-000-000-1p0-000-000-000-3p0-000-000-000-6p5-000---------- |
D:-000-000-1p0-000-000-000-3p0-000-000-000-6p5-000------- -- |
                                                           |  {x2}
e:--------------------------------------------            -- |
b:--------------------------------------------            -- |
g:-3p2p0-------5p3p0--------------------------            -- |
D:-------3p2p0-------5p3p0--------------------            -- |
A:--------------------------------------------            -- |
D:---------------------------------------------------------- |
PRE-CHORUS

Guitar 1
e:--------------------------------------------|
b:--------------------------------------------|
g:--------------------------------------------|
D:-0-000-0------------------0-0---------------|
A:-0-000-0------------------0-0---------------|
D:-0-000-0------------------0-0---------------|

Guitar 2
e:---5---5---5---5---5---5---5---5-------|
b:--6-6-6-6-6-6-6-6-6-6-6-6-6-6-6-6------|
g:-7---7---7---7---7---7---7---7---------|
D:---------------------------------------|
A:---------------------------------------|
D:---------------------------------------|

e:---0---0---0---0---0---0---0---0------------|
b:--6-6-6-6-6-6-6-6-6-6-6-6-6-6-6-6-----------|
g:-5---5---5---5---5---5---5---5--------------|
D:--------------------------------------------|
A:--------------------------------------------|
D:--------------------------------------------|

CHORUS

Guitar 1
e:--------------------------------------------|
b:--------------------------------------------|
g:--------------------------------------------|

Mad Sounds Tabs by Arctic Monkeys

 A song That's Gonna Be On The New Arctic Monkeys Album "AM"

this Song made his live debout , and this is tab for you all :)

enjoy this great song!!
 
**let me know how this tab was for you , by rating it :) ***


Intro (Lead Gutiar)

e|-----------5-~---------3---|
B|---------------------------|
G|----3-s-5------5-s-3-------|
D|---------------------------|  
A|---------------------------|
E|---------------------------|

Second Time :

e|-----------5-~---6p5----5------3------|
B|--------------------------------------|
G|----3-s-5------5------5------3--------|
D|--------------------------------------|  
A|--------------------------------------|
E|--------------------------------------|


Then:

.....          They'll Bring.........Live........  
e|----3--5--6---10---8--6---5---------------------------------|
B|-----------------------------5------6------------8----------|
G|----3--5--6---10---8--6---6----6-------7-----7-----7---0----|
D|------------------------------------7-----7------8---8------|
A|------------------------------------------------------------|
E|------------------------------------------------------------|



...Mad Sounds.... .In Your Ears
e|------------1---------------------------|
B|----------1------3----------------------|
G|-------2------------3-------------------|  x3
D|----3------------------3----------------|
A|--------------------------1~~-----------|
E|----------------------------------------|

4 time :

........Make You Get Up
e|------------1--------------------------|
B|----------1---------3------------------|
G|-------2------------3------------------|
D|----3---------------3------------------|
A|--------------------1------------------|
E|---------------------------------------|



e|----1-~------------------------------------------|
B|----1-~------3-----------------------------------|
G|----2-~------3-----------------------------------|   X2
D|----3-~------3-----------------------------------|
A|----3-~------1-----------------------------------|
E|----1-~------------------------------------------|



Reapet Until The Bridge:



.....suppose..Gotta do...Tried.Figure Out..
e|----1-~-----------------3----1----------------------|
B|----1-~------3----------3----1----------------------|
G|----2-~------3---x2-----3----0----x2----------------|   
D|----3-~------3----------5----2----------------------|
A|----3-~------1----------5----3----------------------|
E|----1-~-----------------3---------------------------|



And The O-La-LaLa  Part Is The Same As 


e|----1-~------------------------------------------|
B|----1-~------3-----------------------------------|
G|----2-~------3-----------------------------------|   X2
D|----3-~------3-----------------------------------|
A|----3-~------1-----------------------------------|
E|----1-~------------------------------------------|