Tag: nice

I Aint No Nice Guy chords – Motörhead Vsion 4

 I Ain't No Nice Guy by Motörhead

 Máirt

This version is with the musically correct chord shapes and names taking into account that the tuning is
down a Half-Step. Version 2 is my work too and may be less confusing for beginners. For the sake of accuracy
though, here's this one.

Tuning: Down a half step -  D# G# C# F# A# D# 

Intro

 G# D# C#  x2

Verse

 G# D# C# 
When I was young I was the nicest guy I knew

 G# F# C# 
I thought I was the chosen one

 G# D# C# 
But time went by and I found out a thing or two

 G# F# C# 
My shine wore off as time wore on

 G# D# C# 
I thought that I was living out the perfect life

 G# F# C# 
But in the lonely hours when the truth begins to surprise

 G# D# C# 
I thought about the times when I turned my back and sulked

 G# F# C# 
I ain't no nice guy after all


The Second verse is the same chords and there is an extra line...

When I was young I was the only game in town
I thought I had it down for sure,
But time went by and I was lost in what I found
The reasons blurred, the way unsure
I thought that I was living life the only way
But as I saw that life was more than day to day
I turned around, I read the writing on the wall

I ain't no nice guy after all

 G# F# G# 
I ain't no nice guy after all


Bridge

 F A# 
In all the years you spend between your birth and death

 F A# 
You know there's lots of times when you should have saved your breath

 D# G# 
It comes as quite a shock when that trip leads to a fall

            F# C# 
I ain't no nice guy after all

 G# F# G# 
I ain't no nice guy after all


Solo

 F A# F A# D# G# C# G# F# G# 

The third verse is the first verse repeated but with the added line...

 G# F#               (C#)G#
I ain't no nice guy after all

No More Mr Nice Guy chords – Billy Roberts And The Rough Riders

 Billy Roberts and the Rough Riders
No More Mr Nice Guy
Album- The last of the Originals (2014)


Intro

 D G E E 
I've tried to be nice, I've tried to be kind
 E 
Be a gentleman for you
 D 
I've followed you round those summer nights just to 
               E 
make you feel blue
 E 
I gave you my heart , gave you my soul
 E 
gave everything i had
 D 
I kinda wasted my precious days with you
                  E 
Wasted time with you
 D G E 
No More Mr Nice Guy any more
 D E 
No More Mr Nice Guy for you


 E 
My eyes are blind, My Ears are deaf


I hear see no hear evil
 D E 
I don't care what you do, what you say or who you choose to do
 E 
I'm down the road walking avenues


whistling as the girls go by
   D 
I got my sway back now and back in the groove 
                   E  
Just like the old days


 D G E 
No More Mr Nice Guy any more
 D E 
No More Mr Nice Guy for you



Instrumental

 E 
Don't call for me, don't look for me


It's beggars days now miss
 D 
I got a philosophy and an attitude
                     E 
That you ain't seen before


 E 
Your no good girl, no good for me


stay away from me now
 D 
i got my finger burned, once before
                   E 
once bitten twice shy


 D G E 
No More Mr Nice Guy any more
 D E 
No More Mr Nice Guy for you

Outro

Neil Christian – Thats Nice chords

 That's Nice:Neil Christian.
#16 on UK Singles on STRIKE
Records in 1966.

INTRO:  E 

#1.
 E 
Got some kind of feeling, I'm gonna fall 
              D 
in love with you..that's nice.
 E 
Got some kind of feeling baby, that you 
                    D 
feel the same way, too..ah, that's nice.

CHORUS:
 B 
Got the whole world in the palm of my hand, 
 A 
since you told me I'm your loving man.
              E 
Baby, that's nice, oooo, that's nice.

BRIDGE:
 E 
So, keep your hands off my woman, none of 

that talkin' back.
 E 
Hands off my woman and none of that yakety, 
                A 
yakety, yakety-yak (yakety-yak) yakety-yak 
                     D 
(yakety-yak) yakety-yak (yakety-yak)

You shouldn't do that, (you shouldn't do that)

#2.
 E 
No Parisian perfume could make you sweeter 
          D 
than you are..cause you're a good girl.
     E 
The latest of London fashions could make you 
                  D 
look more like a star..cause you're a good girl.

CHORUS:
 B A 
Got the whole world in the palm of my hand, since 
                      E A 
you told me I'm your loving man..and baby, that's 
 E 
nice, ooo, that's nice.

BRIDGE:
 E 
So, keep your hands off my woman, none of 

that talkin' back.
 E 
Hands off my woman and none of that yakety, 
                A 
yakety, yakety-yak (yakety-yak) yakety-yak 
                     D 
(yakety-yak) yakety-yak (yakety-yak)

You shouldn't do that, (you shouldn't do that)

#3.
 E 
Got some kind of feeling, baby, I'm gonna fall 
              D 
in love with you..ahh, that's nice.
 E 
Got some kind of feeling, honey, that you 
                    D 
feel the same way, too..ah, that's nice.

CHORUS:
 B A 
Got the whole world in the palm of my hand, since 
                      E A 
you told me I'm your loving man..and baby, that's 
 E 
nice, ooo, that's nice.

OUTRO:
 E 
I said, that's nice, baby, that's nice..(Fade.)



A sixties smash from Kraziekhat.


It Would Be So Nice chords – Pink Floyd V2

 Pink Floyd - It Would Be So Nice
song: http://www.youtube.com/watch?v=jlJPqRs0ZLM

CHORUS
 E 
 It would be so nice
 D/E 
 It would be so nice
 C#m/E 
 It would be so nice
    F A 
To meet, sometime

VERSE 1
 D A 
Everybody wakes and in the morning
 D A 
 Hot tea and can't stop yawning
 G D 
Pass the butter please
 D A 
Have you ever read the Daily Standard?
 D A                 
Reading all about the plane that's landed
 G D 
Upside down?

PRE-CHORUS
 Bb A 
And no one knows what I did today
 Bb D 
 There can be no other way
 B7 
 But I would just like to say

CHORUS
 E 
 It would be so nice
 D/E 
 It would be so nice
 C#m/E 
 It would be so nice
    F 
To meet, sometime
 E 
 It would be so nice (It would be so)
 D/E 
 It would be so nice (nice, be so)
 C#m/E 
 It would be so nice (nice, be so)
    F A 
To meet, sometime (nice)

VERSE 2
 D A 
Everybody cares about the weather
     D A 
And everybody should know better
 G D 
What a waste of time
 D A 
Everybody lives beneath the ceiling
 D A 
Living out a dream that sends them reeling
 G D 
To a distant place

PRE-CHORUS
 Bb A 
And no one knows what I did today
 Bb D 
 There can be no other way
 B7 
 But I would just like to say

CHORUS
 E 
 It would be so nice (It would be so)
 D/E 
 It would be so nice (nice, be so)
 C#m/E 
 It would be so nice (nice, be so)
    F 
To meet, sometime (nice)

OUTRO CHORUS (2x, until fade out)
 E 
 It would be so nice (It would be so)
 D/E 
 It would be so nice (nice, be so)
 C#m/E 
 It would be so nice (nice, be so)
    G# 
To meet, sometime

A Quick One Before The Eternal Worm Devours Connecticut Tabs by Have A Nice Life V3

 Hard to hear the different guitar parts at times,
but guitar one is accurate after much checking. Let all notes ring. Play gently.

For best effect, play over an A drone.


Guitar 1
   Dmaj
   1  2  3  4  5  6  1  2  3  4  5  6  1  2  3  4  5  6  1  2  3  4  5  6
e|---------------------------------------------------------------------------|
B|---------------------------------------------------------------------------|
G|---------------------------------------------------------------------------|
D|-4--7-----------7--4--7-----------7--4--7-----------7--4--7-----------7----|
A|-5-----------------5-----------------5-----------------5-------------------|
E|---------------------------------------------------------------------------|

   Amaj7
   1  2  3  4  5  6  1  2  3  4  5  6  1  2  3  4  5  6  1  2  3  4  5  6
e|---------------------------------------------------------------------------|
B|---------------------------------------------------------------------------|
G|---------------------------------------------------------------------------|
D|-------6--7--6-----------6--7--6-----------6--7--6-----------6--7--6-------|
A|-4--7-----------7--4--7-----------7--4--7-----------7--4--7-----------8----|
E|-5-----------------5-----------------5-----------------5-------------------|

Guitar 2
   Dmaj7
   1  2  3  4  5  6  1  2  3  4  5  6  1  2  3  4  5  6  1  2  3  4  5  6
e|----------9-----------------9-----------------9--------------12------------|
B|-------10----10----------10----10----------10----10-------------10----10---|
G|----11----------11----11----------11----11----------11----11-------11------|
D|-12----------------12----------------12----------------12------------------|
A|---------------------------------------------------------------------------|
E|---------------------------------------------------------------------------|

   Amaj7/C#                                              C#7
   1  2  3  4  5  6  1  2  3  4  5  6  1  2  3  4  5  6  1  2  3  4  5  6
e|----------9-----------------9-----------------9--------------10-------10---|
B|-------9-----9-----------9-----9-----------9-----9--------9--------9-------|
G|----9-----------9-----9-----------9-----9-----------9--10-------10---------|
D|-11----------------11----------------11------------------------------------|
A|---------------------------------------------------------------------------|
E|---------------------------------------------------------------------------|

Flying chords – Nice Little Penguins V4

 D G 
Here I am, I'm on my own 
         D G 
for the first time really on my own 
 Em A D G 
So will I make it 'till it work allright 
 Em A G D 
can I make it through the night 



And I go 
 Em A D G Em A D 
uh uh, uh uh, uh uh I am flying 
 Em A D G Em A G D 
uh uh, uh uh, uh uh in open space  


          D G 
Look at me, I´m riding high 
         D G 
I´m the airbornmaster of the sky 
 Em A D G 
And everything beneath me seems to fade 
 Em A G D 
without a trade, without a shade 



And I go 
 Em A D G Em A D 
uuuh, uuuh, uuuh I am flying 
 Em A D G Em A G D 
uuuh, uuuh, uuuh in open space 


 Em A D G 
And eveything beneath me seems to fade 
 Em A G D 
without a trade, without a shade 



And I go 
 Em A D G Em A D 
uh uh, uh uh, uh uh I am flying 
 Em A D G Em A G D 
uh uh, uh uh, uh uh in open space 



And I go 
 Em A D G Em A D 
uh uh, uh uh, uh uh I am flying 
 Em A D G Em A G D 
uh uh, uh uh, uh uh in open space 

It Isnt Nice chords – Barbara Dane And The Chambers Brothers

 Song From: http://www.allmusic.com/album/barbara-dane-the-chambers-brothers-mw0000656159

 Ab Fm 
It isn't nice to block the doorway, 
 Db Eb 
It isn't nice to go to jail,
 Ab Fm 
There are nicer ways to do it,
 Db Eb 
But the nice ways always fail.
 Ab Fm 
It isn't nice, it isn't nice, 
 Db Eb 
You told us once, you told us twice,
 Db Eb 
But if that is Freedom's price,
          Ab Fm Db Eb 
We don't mind.
 Ab Fm Db Eb  (x2)

It isn't nice to carry banners 
Or to sit in on the floor, 
Or to shout our cry of Freedom 
At the hotel and the store.
It isn't nice, it isn't nice,
You told us once, you told us twice,
But if that is Freedom's price,
We don't mind.

We have tried negotiations
And the three-man picket line,
Mr. Charlie didn't see us 
And he might as well be blind.
Now our new ways aren't nice 
When we deal with men of ice,
But if that is Freedom's price, 
We don't mind.

How about those years of lynchings 
And the shot in Evers' back?
Did you say it wasn't proper,
Did you stand upon the track?
You were quiet just like mice,
Now you say we aren't nice, 
And if that is Freedom's price, 
We don't mind.

It isn't nice to block the doorway,
It isn't nice to go to jail,
There are nicer ways to do it
But the nice ways always fail.
It isn't nice, it isn't nice, 
But thanks for your advice, 
Cause if that is Freedom's price,
We don't mind.

Act Nice And Gentle Tabs by Black Keys V3

 THE BLACK KEYS

Act Nice and Gentle

 Danleary

Key

 b : Bend
 r : Release
 / : Slide into
 \ : Slide out of
 h : Hammer on
 p : Pull off
(-): Ghost note
 ~ : Vibrato
 x : Mute
 U : Up stroke
 D : Down stroke
 T : Fret with thumb
 . : Staccato 

___________________________________________________________

Standard Tuning
___________________________________________________________

Intro

Delta fingerstyle using thumb and index. 

 E
                       
e|--------------0----0----------|--------------0----0----------|
B|---------0h2-----2p0----0-----|---------0h2-----2p0----0-----|
G|-----0h1----------------------|-----0h1----------------------|
D|---2-------2-----2------------|---2-------2-----2------------|
A|------------------------------|------------------------------|
E|0------0------0------0----3b--|0------0------0------0----3b--|

______________________________________________________________ 

Verse

very slightly different than the intro.

e|--------------0----0--------|--------------0----0-------|
B|-------0-2-------2----------|-------0-2----0--2-0--2p0--|
G|---0h1----------------------|---0h1---------------------|
D|---2-------2-----2----------|---2-------2-----2------2--|
A|----------------------------|---------------------------|
E|0------0------0------0--3^--|0------0------0------0-----|
    Where'd you get...                 goodness knows...


e|--2--2-----2-----2p0---0--|---------------|
B|--2--2-----2-----2p0-2-0--|---------------|
G|--------------------------|---------------|
D|--------------------------|---------------|
A|0----0--0--0--0--0--------|---------------|
E|--------------------------|---------------|
    Just show...


e|2--2----2--2--2-0---0--|---------------|
B|0--0----0--0--0---2----|---------------|
G|2--2----2--2--2--------|---------------|
D|1--1----1--1--1--------|---------------|
A|2--2----2--2--2--------|---------------|
E|-----------------------|---------------|
  Act nice... 

______________________________________________________________ 

Chorus 

It looks a bit strange, but it's really just an 
A barre chord with the thumb on the bass note, and an A6 
when using that pinky on the 7th fret. 

e|5-----5---------|5---5-5---------|
B|7-----5---------|7---7-5---------|
G|----------6-----|----------6-----|
D|------------7---|------------7---|
A|----------------|----------------|
E|5-----5---------|5---5---5-------|


e|5-----5---------|5---5---5-------|
B|7-----5---------|7---7---5-------|
G|----------6-----|----------6-----|
D|------------7---|------------7\--|
A|----------------|----------------|
E|5-----5---------|5---5---5-------|
                   false eye lashes...

____________________________________________________________________

And that's the gist of it, with some minor variation here and there.
The outro is basically just a slowed down intro, with some 
embellishments round the E major chord.

Big John Khat And The Highland Blues Band – Its Been Nice chords

 It's Been Nice:Big John Khat And The Highland
Blues Band.
Recorded live (with permission) Munich, Germany 
in 1964.
(Cover of the Everly Brothers hit in 1963.)

INTRO:  Db F#m G Dm G  (x2)

#1.
 G D G          
I took you out to dinner, then I took you to the show.
 G D G 
I had a pocketful of money and I spent all my dough.
        Em B E B 
Now, I see that look in your eyes..you're about to say,
     E 
bye-bye.

CHORUS:
         C G 
I don't wanna hear you sayin' (goodnight) it's been nice 

(I got to go.)
     D G 
Goodnight (sleep tight) I got to get up very early 
        D G 
in the morning.

#2.
 G 
Although it's our first date I really had a ball..you're 

just my kind of chick you're not too short or too tall.
     B Em B       
How can you treat me that way..well, you know I want to
 E 
stay.

CHORUS:
         C G 
I don't wanna hear you sayin' (goodnight) it's been nice 

(I got to go.)
     D G 
Goodnight (sleep tight) I got to get up very early 
        D G 
in the morning.

BRIDGE:
 B Em B E 
Don't try to shake my hand..don't try to brush me off.
    A D 
If I bend over to steal a kiss, don't make out like you 

just gotta go.

#3.
 G 
I'm a-gonna call you next Thursday night and I don't want to join 

the line that forms on the right.
 Em B E B E 
I'm so ready and wow..Kissing time's right now.

CHORUS:
         C G 
I don't wanna hear you sayin' (goodnight) it's been nice 

(I got to go.)
     D G 
Goodnight (sleep tight) I got to get up very early 
        D G 
in the morning.

BRIDGE:
 B Em B E             
Don't try to shake my hand..don't try to brush me off.
    A D 
If I bend over to steal a kiss, don't make out like you 

just gotta go.

#4.
 G 
I'm a-gonna call you next Thursday night and I don't want to join 

the line that forms on the right.
 Em B E B E 
I'm so ready and wow..Kissing time's right now.

OUTRO:
         C G 
I don't wanna hear you sayin' (goodnight) it's been nice 

(I got to go.)
     D G 
Goodnight (sleep tight) I got to get up very early 
        D G 
in the morning.


A sixties smash from Kraziekhat.

Sometimes I Rhyme Slow Tabs by Nice And Smooth V2

 e------------------7-7--6-6----------------------------|
G--2h3p2--5-5------------------------------------------|
B------------------------------------------------------|
D------------------------------------------------------|
A------------------------------------------------------|
E------------------------------------------------------|

Have A Nice Day chords – Bon Jovi V6

 These are the chords for Bon Jovi's Have a Nice Day.
This is 100% accurate. You can see in this video: http://www.youtube.com/watch?v=l9gWZPHWB8A

Tuning: Normal (E A D G B E)

CAPO in 2nd FRET

Chords used:        Bm D Dsus2 Gadd9 A A/E Em 
                e|--2---2---0------3-----0---0--------|
                B|--3---3---3------0-----2---2--------|
                G|--4---2---2------0-----2---2---0----|
                D|--4---0---0------0-----2---2---2----|
                A|--2--------------0-----0---0---2----|
                E|-----------------3---------0---0----|

*The A/E chord is played as the last chord of the progression, just once.
*The Dsus2 chord is played only in the intro chord progression, after the Gadd9.
*He does not play a Gmaj chord, but a Gadd9 chord. It's a bit more "open" chord.
_______________________________________


Intro: |  Bm D Gadd9 Dsus2 A A/E  |  x4


Verse1:

  (Play Bm once and Mute the rest)
 Bm Bm D G A A/E 
Why you wanna tell me how to live my life? 
 Bm Bm D G A A/E 
Who are you to tell me if it's black or white?


Bridge1:

 Bm                  
Mama, can you hear me? Try to understand
 D 
Innocence is the difference between a boy and a man 
    Em 
My daddy lived the lie, its just the price that he paid 
   Gadd9 
Sacrificed his life, just slave it away 


Chorus:

 Bm Gadd9 D      
Ooh, if there's one thing I hang on to, 
            A 
It gets me through the night
 Bm Gadd9 D 
I ain't gonna do what I don't want to,
          A 
Im gonna live my life
 Bm Gadd9 
Shining like a diamond, rolling with the dice,
 D A 
Standing on the ledge, show the wind how to fly
          Em 
When the world gets in my face,
       Gadd9 (x2)             Bm D Gadd9 Dsus2 A A/E 
I say,        Have A Nice Day
             Bm D Gadd9 Dsus2 A A/E 
Have A Nice Day


Verse 2:

  (Play Bm once and Mute the rest)
 Bm Bm D G A A/E 
Take a look around you, look its what he sees
 Bm Bm D G A A/E 
We're living in a broken home of hopes and dreams


Bridge2:

 Bm                              
Let me be the first to shake ya helping hand
 D 
Everybody, pray enough to take a stand 
 Em 
I knocked on every door, on every dead end street, 
 Gadd9 
Looking for forgiveness, What's left to believe?


Chorus:

 Bm Gadd9 D      
Ooh, if there's one thing I hang on to, 
            A 
It gets me through the night
 Bm Gadd9 D 
I ain't gonna do what I don't want to,
          A 
Im gonna live my life
 Bm Gadd9 
Shining like a diamond, rolling with the dice,
 D A 
Standing on the ledge, show the wind how to fly
          Em 
When the world gets in my face,
       Gadd9 (x2)              Bm D Gadd9 Dsus2 A A/E 
I say,         Have A Nice Day
              <s

Back In Nice chords – City Harvest Church

 Verse 1
        D D6 
So you think i'm a tough kid?
    C5/D Gmaj7/D 
Is that what you heard
        D D6 
well i like to see some action
        C5/D Gmaj7/D 
and it gets into my blood
     D 
Oh, let me out of pontiac
            D6 
when i was just sevnteen
   C5/D 
I had to get it out of me
        Gmaj7/D 
If you know what i mean, what i mean.

Instrumental 1

/ D5           / D5           / D5           / D5 
/ D5           / D5           / D5           / D5 
/ D5           / D5           /

Verse 2
 D D6 
Ah,      you say i must b crazy
 C5/D Gmaj7/D 
   cause i don't care who i hit who i hit
       D D6 
cause i know its me thats hitting out
     C5/D Gmaj7/D 
and i'm not full of shit
 D 
down by my bottle
           D6 
filled up high with gasoline
         C5/D 
you can tell by the night fires
       Gmaj7/D 
where rael has been has been

Instrumental 2

/ D5           / D5           / D5           / D5 

Chorus 1
Doct    Dsus2 Dm Dsus2 D D5 *
As     i      cuddld the por - cu - pine
Doct  Dsus2 Dm Dsus2 D D5 *          Doct
he   said   i  had none   to    blame, but me
Doct    Dsus2 Dm Dsus2 D D5 *
Held   my    heart,   deep  in   hair
Doct    Dsus2 Dm Dsus2 D (7) D5 *
Time   to    shave,   shave  it  off, it off
 D5 *
   No time for romantic escape,
          D (b6)
When your  filthy heart is ready for rape. No
 D5 *
  No time for romantic escape,
          D (b6)
When your  filthy heart is ready for rape. 
 D *  E/D A/D D *  E/D A/D D *   E/D A/D 
Off we go,    off we go     off we go

Verse 3
      D 
Your sitting in your comfort
     D6 
you don't believe i'm real
         C5/D 
well yo cannot buy protection
         Gmaj7/D 
for the way that i feel
 D 
   Your progrssive hypocrites
 D6 
hand ou their trash
        C5/D 
it was mine in the first place
         Gmaj7/D 
so i'll burn it to ash.


Verse 4
          D 
And i've taken all the strongest meets
     D6 
and laid them down in coloured sheets
 C5/D Gmaj7/D 
laid them down in coloured sheets
 D 
who needs illusion
    D6 
Of love and affection
           C5/D 
when your out walking in the streets
          Gmaj7/D 
your mainline connection, connection.


Chorus 2
Doct    Dsus2 Dm Dsus2 D D5 *
As     i      cuddld the por - cu - pine
Doct  Dsus2 Dm Dsus2 D D5 *          Doct
he   said   i  had none   to    blame, but me
Doct    Dsus2 Dm Dsus2 D D5 *
Held   my    heart,   deep  in   hair
Doct    Dsus2 Dm Dsus2 D (7) D5 *
Time   to    shave,   shave  it  off, it off
 D5</s

Have A Nice Day – Hey chords

Intro
  ........................3x
E|--------------------------|--------------------------|
H|--------------------------|--------------------------|
G|-------0------------------|-------0------------------|
D|-----6--------------------|-----6--------------------|
A|---7----------------------|---7-------5b6------------|
E|-0------------------------|-0-------------0-6b7-0-3~-|

                                                                  4x
E|--------------------------------|---------------------------------|
H|--------------------------------|---------------------------------|
G|--------------------------------|---------------------------------|
D|---------9----7-6h7p6-----------|-----7-9-7h9p7---------------12--|
A|---------7------------7-----3/5-|---7-----------5/7-7/8-------10--|
E|-0-0-0-0----------------0-0-1/3-|-0---------------------0-0-0-----|
   pm.....                pm.       pm...                 pm...

                                                     2x
E|--------------------------|--------------------------|
H|--------------------------|--------------------------|
G|-------0------------------|-------0------------------|
D|-----6--------------------|-----6--------------------|
A|---7-------5b6------------|---7-------5b6------------|
E|-0-------------0-6b7-0-3~-|-0-------------0-6b7-0-3~-|

Pre-Ref
E|----------------------------|-------------------------------|
H|----------------------------|-------------------------------|
G|----------------------------|-------------------------------|
D|----------------------------|-------------------------------|
A|-5--3--7-3-2--2-2--2-2-2-2--|-5-5-3-3-7-7-3-2--2-2--2-2-2-2-|
E|-3--1--5-1-0--0-0--0-0-0-0--|-3-3-1-1-5-5-1-0--0-0--0-0-0-0-|
                pm..........    pm...........................

E|----------------------------|-------------------------------|
H|----------------------------|-------------------------------|
G|----------------------------|-------------------------------|
D|----------------------------|-------------------------------|
A|-5--3--7-3-2--2-2--2-2-2-2--|-5-5-3-3-7-7-3-2---------------|
E|-3--1--5-1-0--0-0--0-0-0-0--|-3-3-1-1-5-5-1-0------3b4~-----|
                pm..........    pm.............

Ref
E|----------------------------|-------------------------------|
H|----------------------------|-------------------------------|
G|----------------------------|-------------------------------|
D|----------------------------|-------------------------------|
A|-5--3--7-3-2----------------|-5-5-3-3-7-7-3-2---------------|
E|-3--1--5-1-0----------------|-3-3-1-1-5-5-1-0---------------|
                                pm...........

E|----------------------------|-------------------------------|
H|----------------------------|-------------------------------|
G|----------------------------|-------------------------------|
D|----------------------------|-------------------------------|
A|-5--3--7-3-2----------------|-5-5-3-3-7-7-3-2-------2-2-2-2-|
E|-3--1--5-1-0----------------|-3-3-1-1-5-5-1-0-------0-0-0-0-|
                                pm............        pm.....

End
  ........................4x
E|--------------------------|--------------------------|
H|--------------------------|--------------------------|
G|-------0------------------|--------------------------|
D|-----6--------------------|--------------------------|
A|---7----------------------|-5-5-3-3-7-7-3-2----------|
E|-0------------------------|-3-3-1-1-5-5-1-0----------|
                              pm............