Tag: nick

Nitrous chords – Nick Mulvey

 Nick Mulvey - Nitrous

capo 7th fret

Chords
 C/D           xx0010
 G/D           xx0003
 D7            xx0212
 D6            xx0202
 B7/A          x01202
 C             x32010
C*           x35010
 G             320003
 Gsus4         350003  
 D9/F#         200230
Dadd11/F#    20003x
D11(omit5)/F#23003x
F#m13(omit5) 201200
F#m13(b5)    231200
Am/D         xx0-9-10-8
G/D*         xx0787

Note:

the additional chords (C*, Gsus4 etc) are not fully played 
there is only a short hammer on with the pinky, the chords are picked 
with additional reverb effect


Intro
 
 C/D G/G D7 D6 C/D G/G D7 D6 B7/A C             C*                G Gsus4 
Dadd11/F#    D11(omit5)/F#    F#m13(omit5)    F#m13(b5)


 C             C*                G Gsus4 
D9/F#                         F#m13(omit5)



 C G 
And if you see old nitrous man
D9/F#                  F#m13(omit5)
Selling laughter from a can 
 C G          
Tell him that the dream still fits the plan
 D9/F#    
That's why we're waiting at the table
          F#m13(omit5)
Yes he's welcome at the stand


 C              
And I won't mind
 G 
The moment you can say
      D9/F#  
That you saw in a dream
         F#m13(omit5)
How you can let me know anyway
 C                    
That you've seen the day
            G 
No more to pay
         D9/F#  
Trouble came and drove
           F#m13(omit5)
But trouble drove away
 C G 
I see you get mad with no words to say
 D9/F#         
You see me waiting
F#m13(omit5)
Waiting to get paid
 C G 
And darling we get mad giving too much away
D9/F#                  F#m13(omit5)
mmmmmmm                  mmmmmmmmm

Baby I won't lie
I didn't want to say
Until I heard in a dream
How I can let you know anyway
That I've seen the day
With no more to pay
When trouble came and drove
But trouble drove away
I see you getting mad with no words to say
You see me waiting
Always waiting to get paid
And somehow we get mad giving too much away
We get mad with the load and the leverage of each day

 Am/D       G/D*      D7 D6 
Am/D      G/D*    

 
 D7 D6 Am/D 
Surely there's time for you and me
           G/D*
Open your mind
 D7 D6   (continue)
Surely it's plain to see
Open your mind
Surely its plain to see
You're not alone
I'll wait till the end of time for you
Open your mind
Surely it's plain to see
That baby I won't lie
I didn't know want to say
Until I heard in a dream how I can let you know anyway
That I've seen the day
No more to pay
When trouble came a drove
But trouble drove away
Ah we get we get mad with no words to say
We get mad waiting
Always waiting to get paid
And darling we get mad giving too much away
We get mad with the load and the leverage of each day

So if you see, oh nitrous man, selling laughter from a can
Tell him that the dream still fits the plan

Cruel To Be Kind Tabs – Nick Lowe

 CRUEL TO BE KIND

As recorded by Nick Lowe
(From the 1979 Album LABOUR OF LUST)

Words and Music by Nick Lowe & Ian Gomm

 Slowhand


Gtr I (E A D G B E) - 'Billy Bremner - Acoustic Guitar'
Gtr II (E A D G B E) - 'Dave Edmunds - Electric Guitar'


   Intro
    Q=134                                          1.
    C               G/D             F/C             G/D
   4/4
    Gtr I (Ac. Gtr.)
    Q  Q  E E E E   Q  Q  E E E E   Q  Q  E E E E   E E Q  E E E E
||--0--0--0-0-0-0-|---------------|---------------|-----------------||
||o-1--1--1-1-1-1-|-3--3--3-3-3-3-|-1--1--1-1-1-1-|-3-3-3--3-3-3-3-o||
||--0--0--0-0-0-0-|-4--4--4-4-4-4-|-2--2--2-2-2-2-|-4-4-4--4-4-4-4--||
||--2--2--2-2-2-2-|-5--5--5-5-5-5-|-3--3--3-3-3-3-|-5-5-5--5-5-5-5--||
||o-3--3--3-3-3-3-|-5--5--5-5-5-5-|-3--3--3-3-3-3-|-5-5-5--5-5-5-5-o||
||----------------|---------------|---------------|-----------------||


                                      1st - 3rd Verses
  2.
                                   $
                                       C               Em
  E E E E E E E E   E E E E E E Q      Q  Q  E E E E   Q  Q  E E E E
|-----------------|----------------||--0--0--0-0-0-0-|-0--0--0-0-0-0-|
|-3-3-3-3-3-3-3-3-|-3-3-3-3-3-3-3--||o-1--1--1-1-1-1-|-0--0--0-0-0-0-|
|-4-4-4-4-4-4-4-4-|-4-4-4-4-4-4-4--||--0--0--0-0-0-0-|-0--0--0-0-0-0-|
|-5-5-5-5-5-5-5-5-|-5-5-5-5-5-5-5--||--2--2--2-2-2-2-|-2--2--2-2-2-2-|
|-5-5-5-5-5-5-5-5-|-5-5-5-5-5-5-5--||o-3--3--3-3-3-3-|-2--2--2-2-2-2-|
|-----------------|----------------||----------------|-0--0--0-0-0-0-|
|
|                                  Gtr II (El. Gtr.)
| W                 W                  W               W
|-----------------|----------------||--0-------------|---------------|
|-----------------|----------------||o-1-------------|---------------|
|-----------------|----------------||--0-------------|---------------|
|-----------------|----------------||----------------|---------------|
|-----------------|----------------||o---------------|---------------|
|-----------------|----------------||----------------|---------------|


  F/C                               C               Em
  Q  Q  E E E E   E E E E E E E E   E E Q  E E Q    E E Q  E E Q
|---------------|-----------------|-0-0-0--0-0-0--|-0-0-0--0-0-0--|
|-1--1--1-1-1-1-|-1-1-1-1-1-1-1-1-|-1-1-1--1-1-1--|-0-0-0--0-0-0--|
|-2--2--2-2-2-2-|-2-2-2-2-2-2-2-2-|-0-0-0--0-0-0--|-0-0-0--0-0-0--|
|-3--3--3-3-3-3-|-3-3-3-3-3-3-3-3-|-2-2-2--2-2-2--|-2-2-2--2-2-2--|
|-3--3--3-3-3-3-|-3-3-3-3-3-3-3-3-|-3-3-3--3-3-3--|-2-2-2--2-2-2--|
|---------------|-----------------|---------------|-0-0-0--0-0-0--|


  F/C    Em       Dm             F/C              Em
  Q  E E Q  E E   Q  Q  E E Q    E E Q  E E E E   E E Q  E E E E
|--------0--0-0-|-1--1--1-1-1--|----------------|-0-0-0--0-0-0-0-|
|-1--1-1-0--0-0-|-3--3--3-3-3--|-1-1-1--1-1-1-1-|-0-0-0--0-0-0-0-|
|-2--2-2-0--0-0-|-2--2--2-2-2--|-2-2-2--2-2-2-2-|-0-0-0--0-0-0-0-|
|-3--3-3-2--2-2-|-0--0--0-0-0--|-3-3-3--3-3-3-3-|-2-2-2--2-2-2-2-|
|-3--3-3-2--2-2-|--------------|-3-3-3--3-3-3-3-|-2-2-2--2-2-2-2-|
|--------0--0-0-|--------------|----------------|-0-0-0--0-0-0-0-|


                                  Chorus
  F/C             G/D              F/C     G/D       Em      Am
  Q  E E E E Q    E E Q  E E Q     E E E E E E E E   E E E E E E E E
|---------------|---------------||-----------------|-0-0-0-0-0-0-0-0-|
|-1--1-1-1-1-1--|-3-3-3--3-3-3--||-1-1-1-1-3-3-3-3-|-0-0-0-0-1-1-1-1-|
|-2--2-2-2-2-2--|-4-4-4--4-4-4--||-2-2-2-2-4-4-4-4-|-0-0-0-0-2-2-2-2-|
|-3--3-3-3-3-3--|-5-5-5--5-5-5--||-3-3-3-3-5-5-5-5-|-2-2-2-2-2-2-2-2-|
|-3--3-3-3-3-3--|-5-5-5--5-5-5--||-3-3-3-3-5-5-5-5-|-2-2-2-2-0-0-0-0-|
|---------------|---------------||-----------------|-0-0-0-0---------|


  F/C     G/D       Em      Am        F/C     G/D       Em      Am
  E E E E E E E E   E E E E E E E E   E E E E E E E E   E E E E E E E E
|-----------------|-0-0-0-0-0-0-0-0-|-----------------|-0-0-0-0-0-0-0-0-|
|-1-1-1-1-3-3-3-3-|-0-0-0-0-1-1

Meet Me There chords – Nick Mulvey V2

 Nick Mulvey - Meet me there

simplified to the version with a capo on the 2nd fret

Capo 4th fret

Chords

 Dm7              xx0211
 D7sus2           xx0210
 Cadd9            x30010
 C/G              3x2013
Fma13(b5,#9)    100100 
Fma7(b5)        103200 
 Fmaj7            133200
Fm(ma13)(#11)   130200
Cma11(omit5)/F  130400
F6(#11,omit3)   1305xx
Dm*             x57565 Or x57568 or x57555
                                        h
                                    x57565


Intro 
                                     

 Dm7 D7sus2 Dm7 D7sus2  
C (Cadd9 hammer on back to C) C  G (hammer on C/G back to G) G


 Dm C G 
After all the people picking people picking people apart, my love
  Dm C G                         
And after all the dealing, the hooking and reeling along from the start
 Dm C G 
Ohhhhhhh there's a field, meet me there
 Dm C G 
Out beyond rightness and wrong, meet me there
 Dm C G 
Woman you're leaving, loving, you're leading me on
 Dm C G 
Living I'm alive, sweet woman, keep loving me on


 Dm                                                     
Cause they wake up every morning with the cradle in their hands,
          C G 
but they pretend it's a game
 Dm C G 
Acting like the only place the truth could ever live was up on Shacklewell Lane
 Dm C G 
Ohhhhhhh there's a field, meet me there
 Dm C G 
Please come along, tie back your hair

[break]

Fma13(b5,#9) Fma7(b5) Fma13(b5,#9) Fma7(b5)
mmm mmmmmm mmmmmm mmmmmmm
Fmaj7  Fm(ma13)(#11)  Cma11(omit5)/F  F6(#11,omit3)
mmm mmmmmm mmmmmm mmmmmmm


 Dm C G 
I tried yesterday, it takes me so long to say, but I need you to know
 Dm C G                 
Darling you show, by leaving me so, the only way to hold on is keep letting go
 Dm C G 
Ohhhhhhh there's a field, meet me there
     Dm C G 
No I'm on my way, meet me there



[break]

Fma13(b5,#9) Fma7(b5) Fma13(b5,#9) Fma7(b5)
mmm mmmmmm mmmmmm mmmmmmm
Fmaj7  Fm(ma13)(#11)  Cma11(omit5)/F  F6(#11,omit3)
mmm mmmmmm mmmmmm mmmmmmm



Dm*                                C G 
Ohhhhhhh there's a field, meet me there
Dm*                                     C G 
Out beyond rightness and wrong, meet me there
Dm*                       C G 
I'm on my way, meet me there
Dm*                         C G 
Please come along, tie back your hair
 Dm C G 
After all the people picking people picking people apart, my love

Chains chords – Nick Jonas V3

 Nick Jonas - Chains
Tuning: Standard (E A D G B E)
Arranged key: A minor (A B C D E F G A)
Original key: C minor (C D Eb F G Ab Bb C), either put a capo on the third fret or transpose to +3
Tempo: 76 bpm
 Robert from Astlessons



[Intro]:  Am Am 
With her wine-stained lips, yeah she's nothing but trouble

Cold to the touch but she's warm as a devil

I gave her my heart but she wanted my soul

She takes 'til I break and I can't get more

                 F Am 
You got me in chains, you got me in chains for your love
                  G Dm 
But I wouldn't change, no I wouldn't change this love
             F Am 
Got me in chains, you got me in chains for your love
                  G Dm 
But I wouldn't change, no I wouldn't change this love


Tryna break the chains, but the chains only wring me
  Am 
Hey, hey, hey, (hey) tryna break the chains but the chains only wring me

   Am 
Alone in the night 'til she knocks on my door

Oh no, wasted again but I can't say no, no

Baby tell me why, why you do, do me wrong

Baby tell me why, why you do, do me wrong

Gave you my heart but you took my soul

                 F Am 
You got me in chains, you got me in chains for your love
                  G Dm 
But I wouldn't change, no I wouldn't change this love
             F Am 
Got me in chains, you got me in chains for your love
                  G Dm 
But I wouldn't change, no I wouldn't change this love


Tryna break the chains, but the chains only wring me
  Am 
Hey, hey, hey, (hey) tryna break the chains but the chains only wring me


Hey, hey, hey, hey (you got me in)

Baby tell me why, why you do, do me wrong

Baby tell me why, why you do, do me wrong

Gave you my heart but you took my soul

                 F Am 
You got me in chains, you got me in chains for your love
                  G Dm 
But I wouldn't change, no I wouldn't change this love
                 F Am 
You got me in chains, you got me in chains for your love
                  G Dm 
But I wouldn't change, no I wouldn't change this love

Tryna break the chains but the chains only wring me



Chords:
Am   (X 0 2 2 1 X) or (5 7 7 5 5 5)
F    (1 3 3 2 1 1) or (X X 3 2 1 1) or simplify with Fmaj7 (X X 3 2 1 0)
G    (3 2 0 0 0 3) or (3 2 0 0 3 3) or (3 5 5 4 3 3)
Dm   (X X 0 2 3 1) or (X 5 7 7 6 5)

Chords in C minor:
Cm   (X 3 5 5 4 3) or (8 10 10 8 8 8) or simplify with (X X X 5 4 3)
Ab   (4 6 6 5 4 4) or simplify with (X X X 5 4 4)
Bb   (X 1 3 3 3 1) or (6 8 8 7 6 6) or simplify with (X X X 7 6 6)
Fm   (1 3 3 1 1 1) or simplify with (X X 3 1 1 1)

Clarification:
Chordname (E A D G B E)
X = Don't play / Muffle



If you like this transcription, feel free to check out my YouTube channel where I post tutorials:
https://www.youtube.com/astlessons



//Robert

Lippen Op De Mijne chords – Nick En Simon

 C  
De allereerste zomerdag 
 F G  
De allermooiste oogopslag 
 C  
Je haren dansten in de wind 
 F G  
Je draaide om ik werd verblind 
 C                                     
Tot dat moment hadden meisjes mij 
 F G  
Nooit zoveel gedaan als jij 
 C  
Nooit dat iemand zonder het te bedoelen 
 F G  
Mij vlinders in mijn buik laten voelen

 Am                       
Je nam me zwijgend mee 
 D  
Er was niemand die ons vinden kon 
 F C G  
Het leek alsof mijn leven daar begon

Refr. 
 C         
Oh want ik kon kon kon niet langer wachten 
 F G  
Na al die slapeloze nachten 
 C  
En niets of niemand hield me tegen 
 F G  
Maar ik was zo verlegen 
 C                                                 
En wil wil dat het nooit meer zou verdwijnen 
 F G  
Oeh jou lippen op de mijne 
 F C G  
Het was voor de eerste keer 
Jou lippen op de mijne 

 C 
Jij wist heel goed wat te doen
 F G 
Ik neem aan want ik was zo groen
 C 
Ik stond te trillen op me benen
 F G 
Een tinteling van me lippen tot mijn tenen

 Am 
Het gemaaide gras
 D 
Het gloeien van de avondzon
 F C G 
Het leek alsof de zomer daar begon

Refr.
 D 
Oh want ik kon kon kon niet langer wachten
 G A 
Na al die slapeloze nachten
 D 
En niets of niemand hield me tegen
 G A 
Maar ik was zo verlegen
 D 
En wil wil dat het nooit meer zou verdwijnen
 G A 
Oeh jou lippen op de mijne
 G D C 
Het was voor de eerste keer
Jou lippen op de mijne

 Bb F 
We zijn nu heel wat jaren ouder
 C G 
En heb je lang niet meer gezien
 Bb F 
Ik vraag me af of jij terugdenkt
 Dm G 
En of ik jou ooit tegenkom misschien
 A 
Heel misschien

Refr.
 D 
Oh want ik kon kon kon niet langer wachten
 G A 
Na al die slapeloze nachten
 D 
En niets of niemand hield me tegen
 G A 
Maar ik was zo verlegen
 D 
En wil wil dat het nooit meer zou verdwijnen
 G A 
Oeh jou lippen op de mijne
 G D C 
Het was voor de eerste keer
Jou lippen op de mijne

Heel Even chords – Nick En Simon

 Intro:  G Em Am D  2x


           G Em 
Het is nu 9 uur, Lijkt of het langer duurt
    C D C D 
De tijd gaat zo traag, Ik voel me anders vandaag
            G Em 
Waar is de werkelijkheid, Ik ben em even kwijt
 C D C D 
Jij danst voor mij, En komt dichterbij
 B Em D G 
  De tijd staat even stil,  En weet je wat ik wil?
    Am D E 
Ik wil niets anders, anders meer niets anders meer dan jou


      A C# F#m 
Heel even, Lijken tijd en ruimte niet te bestaan
          G D A 
Lijkt de wereld in rook op te gaan, En wat over blijft
        Bm E 
Is het oogcontact tussen jou en mij

      A C# F#m 
Heel even, Lijken tijd en ruimte niet te bestaan
          G D A 
Lijkt de wereld in rook op te gaan, En die wilde nacht
        Bm E A 
Begon alleen met onschuldig oogcontact


 A F#m Bm E  x2

            G Em 
Dit had ik nooit gedroomd, Mijn bloed dat sneller stroomt
 C D C D 
Ik wordt onwel, Mijn hart klopt zo snel
             G Em 
Dit is toch geen manier, Ik sta te trillen hier
          C D C D 
Ben hier niet mee bekend, En dit echt niet gewend
 B Em D G 
  De tijd staat even stil, En weet je wat ik wil?
    Am D E 
Ik wil niets anders, anders meer niets anders meer dan jou


Heel even, Lijken tijd en ruimte niet te bestaan
Lijkt de wereld in rook op te gaan, En wat over blijft
Is het oogcontact tussen jou en mij

Heel even, Lijken tijd en ruimte niet te bestaan
Lijkt de wereld in rook op te gaan, En die wilde nacht
        Bm E G 
Begon alleen met onschuldig oogcontact


 Bm E A F#m G 
tututututututu
       E 
Niets anders meer dan jou


      A C# F#m 
Heel even, Lijken tijd en ruimte niet te bestaan
          G D A 
Lijkt de wereld in rook op te gaan, En wat over blijft
        Bm E 
Is het oogcontact tussen jou en mij

      A C# F#m 
Heel even, Lijken tijd en ruimte niet te bestaan
          G D A 
Lijkt de wereld in rook op te gaan, En die wilde nacht
        Bm E A 
Begon alleen met onschuldig oogcontact


 A F#m Bm E  x2    A

Teacher chords – Nick Jonas

 Capo: 3
Intro (2X)
e-------------------------------------------|
B-------------------------------------------|
G-------------------------------------------|
D---2p0--0-1-2------2p0-----0-2-------2-----|
A------0----------------0--------1s2--------|
E--0---------3-0----------------------------|

 Em A G 
Right when I think I finally got you figured out
 Em Em 
You turn around, blow my mind
 Em A G 
So frustrated, girl you make me wanna shout
 Em Em 
And it's the only the start of the night
 Em A G 
And I'm like, oh my, oh my, oh my, oh my Gooood
 Em Em 
Oh my, oh my, oh my, oh my God

 C 
What you do me wrong?
 Em 
What you do me wrong?
 B7 
When you wear that dress, 
 B7 
and my heart it just can't take it anymore
 C 
What you do me wrong?
 Em 
What you do me wrong?
 B7 
When you act like this, 
 B7 
it's like your momma never told you how 
*Palm Mute*
to love So let me teach you

(2X)
e-------------------------------------------|
B-------------------------------------------|
G-------------------------------------------|
D---2p0--0-1-2------2p0-----0-2-------2-----|
A------0----------------0--------1s2--------|
E--0---------3-0----------------------------|

 Em A G 
Take on step forward Then we take a couple back
 Em Em 
But you know I'm gonna keep up the pace
 Em A G 
This game we're playing make me wanna break the rules
 Em Em 
Can't let you get away from me
 Em A G 
Oh my, oh my, oh my, oh my Goooood (Oh My God)
 Em Em 
Oh my, oh my, oh my, oh my God (yeah)


 C 
What you do me wrong?
 Em 
What you do me wrong?
 B7 
When you wear that dress, 
 B7 
and my heart can't take it anymore
 C 
What you do me wrong?
 Em 
What you do me wrong?
 B7 
When you act like this, 
 B7 
it's like your momma never told you how
*Palm mute*
to love So let me teach you

(2X)
e-------------------------------------------|
B-------------------------------------------|
G-------------------------------------------|
D---2p0--0-1-2------2p0-----0-2-------2-----|
A------0----------------0--------1s2--------|
E--0---------3-0----------------------------|

 Em 
Dance with that body girl
 B7 
'Cause everybody here is wanting your body girl
 Em 
Dance with that body girl
 B7 
'Cause everybody here is wanting your body girl


 C 
What you do me wrong?
 Em 
What you do me wrong?
 B7 
When you wear that dress, 
 B7 
and my heart can't take it anymore
 C 
What you do me wrong?
 Em 
What you do me wrong?
 B7 
When you act like this, 
 B7 
it's like your momma never told you how
 B7 
to love So let me teach you


 C 
What you do me wrong?
 Em 
What you do me wrong?
 B7 
When you wear that dress, 
 B7 
and my heart can't take it anymore
 C 
What you do me wrong?
 Em 
What you do me wrong?
 B7 
When you act like this, 
 B7 
it's like your momma never told you how
*Palm mute*
to love So let me teach you

(2X)
e-------------------------------------------|
B-------------------------------------------|
G-------------------------------------------|
D---2p0--0-1-2------2p0-----0-2-------2-----|
A------0----------------0--------1s2--------|
E--0---------3-0----------------------------|

*Palm mute*
So let me te

I Fancy The Pants Off Of You chords – Nick Helm

 E A E 
i fancy the pants off of you
 E A B 
it's everything you say it's everything that you do
           E G# 
it's the look in your eyes it's the smile on your lips
           A B 
it;s the smell of your hair it's the sway of your hips
                            E B 
i fancy the pants off of you

 E A E 
i fancy the pants off of you
 E A B 
i don't even care what it is that you do
           E G# 
you could work down a pit you could live down a well
           A B 
you could spend you whole life trying to make my life hell
                            E B 
i fancy the pants off of you

 E A E 
i fancy the hell out of you
 E A B 
i don;t even know what the hell that you do
           E G# 
you could trample my lawn you could scratch out my eyes
           A B 
i'll forgive you the world when i'm wrapped in your thighs
                            E B 
i fancy the hell out of you

 E A E 
i fancy the hell out of you
 E A B 
i don't even care what the hell that you do
           E G# 
you could rip out my heart you could sing out of key
           A B 
you could even vote for the bnp
                            E B 
i fancy the hell out of you

 E A E 
i fancy the fuck out of you
 E A B 
i don't give a fuck what the fuck that you do
           E G# 
you could sleep with my friends you could shit in the bed
           A B 
you can even grind your teeth when you've giving me head
                            E B 
i fancy the fuck out of you

 E A E 
i fancy the fuck out of you
 E A B 
fuck fuckity fuck what the fuck can i do
           E G# 
you're fucking around i got no place to hide
             A B 
and you're making me want to commit suicide
                           E 
i fancy the fuck out of you


mikd

Leve De Vrouw chords – Nick En Simon

 [Verse 1]

 A 
Gelovigen die wakker worden,
 F#m A 
wetenschappers in de war
   F#m 
de wereld weet het nou
     Bm 
van Venus komt de vrouw
       A E A 
en de mannen die komen van Mars.


Ik zal ze nooit precies begrijpen
     D A 
en knijp er wel eens tussenuit
         F#m    
maar ik heb al wel geleerd 
     Bm 
dat hoe je 't wendt of keert 
         D E A 
zonder vrouw houdt een man het niet uit.


[Chorus]

 E 
oooooh
 D 
oooooh

 A 
Leve de vrouw
          D A 
waar ik zoveel van hou
              F#m E A 
waar ik mijn hart aan toevertrouw
    
dit is een ode aan de vrouw
          D A 
die van mij, die van jou
              F#m 
zij is mijn hart,
               E 
zij is mijn hoofd,
             D E A 
zij is mijn a-adem.

          D   
hé hé hé 
 A F#m B D E A 
  hé hé hé 


[Verse 2]

 A 
Ze laat zich met geen pen beschrijven
     F#m A 
Maar is geen onbeschreven blad
         F#m             
Aan het eind van mijn latijn
      Bm 
zal zij nog bij me zijn
         A E A 
als de helft van mijn kloppende hart


Ze raakt me met de juiste woorden
       D A 
maar legt ze nimmer in de mond
    F#m 
ze is vandaag en morgen
 Bm 
Laat ze alle zorgen
     D E A 
verdwijnen als sneeuw voor de zon


[Chorus]

 E 
oooooh
 D 
oooooh

 A 
Leve de vrouw
          D A 
waar ik zoveel van hou
              F#m E A 
waar ik mijn hart aan toevertrouw
    
dit is een ode aan de vrouw
          D A 
die van mij, die van jou
              F#m 
zij is mijn hart,
               E 
zij is mijn hoofd,
             D E A 
zij is mijn a-adem.


[Bridge]

 E            
(oooooooh) hé hé hé 
 D   
(oooooooh) hé hé hé 
 E             
(oooooooh) hé hé hé 
 D   
(oooooooh) hé hé hé 

 E D 
Dit is een ode, dit is een ode

dit is een ode aan de vrouw
 E D 
Ik heb haar nodig, ik heb haar nodig

Ik kan niet leven zonder vrouw


[Chorus]

 A 
Leve de vrouw
          D A 
waar ik zoveel van hou
              F#m E A 
waar ik mijn hart aan toevertrouw
    
dit is een ode aan de vrouw
          D A 
die van mij, die van jou
              F#m 
zij is mijn hart,
               E 
zij is mijn hoofd,
             D E A 
zij is mijn a-adem.

(Hé hé hé)
          D A 
die van mij, die van jou

(Hé hé hé)
             F#m 
Zij is mijn hart
              E 
Zij is mijn hoofd
             D E A 
Zij is mijn a-adem
           D E A 
Hé hé hé
           D E A 
Hé hé hé
           D E A 
Hé hé hé

Ragin Eyes chords – Nick Lowe

 Ragin' Eyes:Nick Lowe.
Album - Abominable Showman - on
F-BEAT Records in 1983.


INTRO:  A 

#1.
 A 
Well, I know a little girl, lives over there..
                                       D 
she looks so square but for a pair of ragin' eyes.
 E A 
Oh, she's got ragin' eyes.

#2.
 A 
Well, she ain't such a beauty, hardly Juliet..

but she can roll on Romeo and then do his duty
            D E A 
With those ragin' eyes, ragin' eyes.

CHORUS:
           F#m A E A 
She's got ragin' eyes..who wants to tell her?
 A D A F#m A 
Ragin' eyes, (ragin' eyes) oh, no, ragin' eyes..not 
              F#m A E 
this fellow, ragin' eyes..(ragin' eyes.)

#3.
 A 
Sometimes she's soft..sometimes she's scaly..

her mama said, that even back when she was a baby,
         D E A 
she had ragin' eyes, ragin' eyes.


INTERLUDE:  A D E A D E A 


CHORUS:
               F#m A E A 
Oh, she's got ragin' eyes..who wants to tell her?
 A D A F#m A 
Ragin' eyes, (ragin' eyes) oh, no, ragin' eyes..not 
              F#m A E 
this fellow, ragin' eyes..(ragin' eyes.)

#4.
 A 
Well, she can work those lights so they fiddle with 
                                              D 
the traffic..somettmes she's mean as an M-16 automatic.
       E A D E 
whoa, oh, she got ragin' eyes..she got ragin' eyes, ragin' 
 A 
eyes.

OUTRO:
 A D E A 
Yeah-yeah-yeah-yeah-yeah-yea..eah-eah..ragin' eyes.
 A 
She-boom-she-boom..she-boom-she-boom..she-boom-she-boom..
 A 
she-boom-she-boom..she-boom-she-boom..she-boom-she-boom..(Fade.)


An eighties smash from Kraziekhat.

I Got You chords – Nick Carter V2

 F Dm C 
People tell me, you stay where you belong
 C Bb F 
But all my life I've tried to prove them wrong
 F Dm C 
They say I'm looking for something that can't be found
 C Bb F 
They say I'm missing out if my feet don't touch the ground
 F Dm C 
But there are moments When you can't deny what's true
 C Bb F 
Just an ordinary day Like when I met you

      C Bb F   
It's funny how life can take new meaning
     Am Bb C 
You came and changed what I believe in
     Am Bb Dm 
The world on the outside is trying to pull me in
  C Bb F C F Dm 
But they can't touch me 'Cause I... got you
  C Bb F 
I got you, oh yeah

 F Dm C   
I want to thank you For all of the things you've done
 C Bb F 
And most for choosing me To be the one

      C Bb F   
It's funny how life can take new meaning
     Am Bb C 
You came and changed what I believe in
     Am Bb Dm 
The world on the outside is trying to pull me in
  C Bb F C F Dm 
But they can't touch me 'Cause I... got you

        Bb Dm 
And it hits me when I reach for you
 Am Bb Dm 
That I'm afraid you won't be there
 Am Bb C F 
Maybe I am in too deep But I don't care
       Dm C 
I'm right Where I belong, I got you, 
          Bb F   
Yeah, I want to prove them wrong
 F Dm C 
I've got you, yeah, You can't deny what's true, no
 C Bb F Bb F 
They can't touch me, yeah yeah, I got you, I got you, I got you baby
 F Dm C 
You can't deny what's true, 
 C Bb F C         
No, they can't touch me, 'Cause I... got you

Deanna chords – Nick Cave And The Bad Seeds

 Song: Deanna
Artist: Nick Cave & The Bad Seeds
 Tender Pray
Year: 1988
Tabber: beranger80@hotmail.com



 C F 
Oh Deanna
      C 
Oh Deanna!
 F C 
Oh Deanna
 F C 
You know you are my friend, yeah
 F D G 
And I ain't down here for your money
 G D G 
I ain't down here for your love
 G D D 
I ain't down here for your love or money
 D C 
I'm down here for your soul



 C F 
There's no carpet on the floor
 C F 
And the winding cloth holds many moths
 C F 
Around your Klu-Klux furniture
 C F               
I come of deaths head in your frock
 D G 
We discuss the murder plan
 D G 
We discuss murder and the murder act
 D G 
Murder takes the wheel of your Cadillac
 G C 
And death climbs in the back



 C F 
Oh Deanna
 F C 
Oh oh Deanna
 F C 
Sweet Deanna
 F C 
Oh oh Deanna
 F C 
Well, this is a car
 F C 
and this is a gun now
 F C 
And this a day number one
 F C 
Oh Deanna
 F D 
The little crime woven histories
 G D 
are black and a smoking christmas trees
 G D 
And honey, it ain't mystery
 G C 
Why you're a mystery to me



 F C 
We will eat out of their pantries
 F C 
And their parlours
 F C 
Ashy leaving in their beds
 F D 
And we'll unload into their heads
 G D 
On this mean season
 G D 
But this little angel that I squeezing
 G 
She ain't been mean to me



 C F 
Oh Deanna
      C 
Oh Deanna!
 F C 
Oh Deanna
 F C 
You are my friend and my partner
 F C 
On this house on the hill
 G D G 
I ain't down here for your love or money
 G D G 
I ain't down here for your love 
 G C 
I'm down here for your soul




 C F 
Oh Deanna
 C F 
Oh Deanna
 F C 
I  Am A  knocking
 F C 
With my toolbox and my stocking
 F C 
Well I'll meet you on the corner
 F C 
And you point it like a finger
 F C 
And squeeze its little things now
 F C 
I hear it's kick, hear it's bang
 F D 
And let no worry about it's issue
 G D 
Don't worry about where its been
 G D 
and don't worry about where it hits
 G C 
Cause it just ain't yours to sin




 C F 
Oh Deanna
 F C 
No it just ain't your to sin
 F C 
Sweet Deanna
 F C 
I ain't getting any younger
 F C 
And I don't intend gettin' any older
 F C 
The sun a hump at my shoulder
 C F 
Oh Deanna              
 F <sp

Just One Kiss chords – Nick Carter

 ### CAPO 3 ###

 G D C 
Don't turn away, don't close the door
 C 
I couldn't take it
 G D C 
We've got find out for sure
 C 
Before there's no turning back
 G D C 
If this is a start of the end of the road
 C 
I've got ask before you go

 C G                       
If I could have just one kiss (one kiss)
     D C 
If that's all it is, I know that is over
                  G                          
If I could have just one kiss (one kiss)
     D C 
If there's something more We could start over
                   G D C      
If I could have just one (just one) kiss, Just one (just one)
                   G D C 
If I could have just one (just one) kiss. Just one (just one)

 G D C 
I've been a fool just standing by
 C 
Watching it comes to this
 G D C 
But now I'm here Stand and fight
 C 
For all the promises
 G D C 
If this is a start of the end of the road
 C 
I wouldn't back, I'd let you go

 C G                       
If I could have just one kiss (one kiss)
     D C 
If that's all it is, I know that is over
                  G                          
If I could have just one kiss (one kiss)
     D C 
If there's something more We could start over
                   G D C      
If I could have just one (just one) kiss, Just one (just one)
                   G D C 
If I could have just one (just one) kiss. Just one (just one)

 A 
We told that we'd find a way forward
 C 
We just need to find what we miss
 A 
So what if we look like we're crazy
 C D 
For hangin' it all on this

 G D C 
Don't turn away, don't close the door

 C G                       
If I could have just one kiss (one kiss)
     D C 
If that's all it is, I know that is over
                  G                          
If I could have just one kiss (one kiss)
     D C 
If there's something more We could start over
                   G D C      
If I could have just one (just one) kiss, Just one (just one)
                   G D C 
If I could have just one (just one) kiss. Just one (just one)

Do I Have To Cry For You chords – Nick Carter V5

 Tuned half-step down



 D 
Don't wanna close the door
 G 
Don't wanna give up on it
 D 
Don't wanna fight no more
 G 
We'll find a way around it
 Bm A G A     
Where's the love we had
 Bm A G 
We can make it last 

 G D 
Tell me what I gotta be
 D A 
Tell me what you wanna do?
                        Bm 
Cause I can't live my life
                      G 
The way you want me to
                      D A  
You know I can't go on, living like we do
                       G   
Do I have to cry for you
                        D G                 
Do I have to cry for you

 D 
So tell me what it's for
 G 
If there's no winner in it
 D 
Nobody's keeping score
 G 
Let's start from the beginning
 Bm A G A  
Can we make it last
 Bm A G A  
With the love we have

                       D 
Tell me what I gotta be
                         A 
Tell me what you wanna do
                        Bm 
Cause I can't live my life
                     G 
The way you want me to
                        D 
You know you can't go on
                 A 
Living like we do
                       G 
Do I have to cry for you
                       A 
Do I have to cry for you

 A Bm G A 
Do I gotta stand in the cold dark night 'til the morning light, yeah!
 A G A 
Do I have to say I won't let you get away...

* Final Chorus (Full step up)

 A E 
What do I gotta be
                        B 
Tell me what you wanna do
                  C#m 
I can't live my life
                      A 
The way you want me to
                     E 
You know I can't go on
                B 
Living like we do
                       A 
Do I have to cry for you, yeah
 E 
Yeah, yeah,
 B 
Yeah, yeah, yeah,
 C#m A 
Hold on...
                     E 
You know I can't go on
                B 
Living like we do
                A 
Do I have to cry for you
                           E 
Do I have to cry... for you

Stoplight Roses chords – Nick Lowe V2

 E 
You've practiced and rehearsed
     C#m 
But in your heart you know
      F#m A B 
It's too late.
 Fm 
Experience should tell you
 B A E 
Never get your story too straight.
       A             
You'd better steel yourself
       G#m 
And prepare for
      C#m F#m 
Some blues to descend
                A 
'Cause you've broken something this time
 B E 
Stoplight roses can't mend.

        E 
You've dusted off your shame face
        C#m Fm A B 
In the mirror behind the bathroom door.
      F#m 
That little-boy-lost look 
      B 
That used to work so well
         A E 
Doesn't anymore.
    A G#m 
If you believe your same-old used-to-be
      C#m F#m 
Will see you through
        A B E 
You'll last about as long as stoplight roses do.

 E F#M 
Stoplight roses
 B E 
In their sad array.
                   A 
Love's promise in cellophane lace
 B E 
Or dead giveaway?
 A G#m 
You'll need time to devise
 C#m F#m 
A stylish plan
            A B 
And you'll do it driving over to
                     E 
The stoplight roses man.

 E A G#m 
And if you believe your same-old used-to-be
      C#m F#m 
Will see you through
        A B E 
You'll last about as long as stoplight roses do.

One Of These Things First Tabs by Nick Drake

 Nick Drake - Milk and Honey

TUNING: BEBEBE  - highest two strings remain while the bottom 4 are tuned down.

Intro:

E:------------------------------------|
B:------------------------------------|
E:---4-4-----5-5-----7-7-----6--5-----|  x4
B:--0-0-0---2-2-2---4-4-4---3--2------|
E:-0-------0-------0-------0--0-------|
B:------------------------------------|


Verse:

E:------------------------------------|
B:------------------------------------|
E:---4-4-----5-5-----7-7-----6--5-----|  x4
B:--0-0-0---2-2-2---4-4-4---3--2------|
E:-0-------0-------0-------0--0-------|
B:------------------------------------|

E:------------------------------------------------------------------------|
B:------------------------------------------------------------------------|
E:---0-0-----0-0-----0-0-----0-0---------3-3-----3-3-----3-3-----3-3------|
B:--5-5-5---5-5-5---5-5-5---5-5-5-------3-3-3---3-3-3---3-3-3---3-3-3-----|
E:-5-------5-------5-------5-----------3-------3-------3-------3----------|
B:------------------------------------------------------------------------|

E:------------------------------------|
B:------------------------------------|
E:---4-4-----5-5-----7-7-----6--5-----|  x2
B:--0-0-0---2-2-2---4-4-4---3--2------|
E:-0-------0-------0-------0--0-------|
B:------------------------------------|

E:------------------------------------|
B:------------------------------------|
E:---3-3-----3-3-----0-0-----0-0------|
B:--3-3-3---3-3-3---2-2-2---2-2-2-----|
E:-3-------3-------2-------2----------|
B:------------------------------------|

E:------------------------------------|
B:------------------------------------|
E:---4-4-----5-5-----7-7-----6--5-----|  x1
B:--0-0-0---2-2-2---4-4-4---3--2------|
E:-0-------0-------0-------0--0-------|
B:------------------------------------|

E:------------------------------------|
B:------------------------------------|
E:---3-3-----3-3-----0-0-----0-0------|
B:--3-3-3---3-3-3---2-2-2---2-2-2-----|
E:-3-------3-------2-------2----------|
B:------------------------------------|

E:------------------------------------|
B:------------------------------------|
E:---4-4-----5-5-----7-7-----6--5-----|  x1
B:--0-0-0---2-2-2---4-4-4---3--2------|
E:-0-------0-------0-------0--0-------|
B:------------------------------------|

Chorus:

E:--------------------------------------------------------------------------------|
B:--------------------------------------------------------------------------------|
E:---0-0-----0-0-----0-0-----0-0---------0----0----0----0----0----0----0----0-----|
B:--5-5-5---5-5-5---5-5-5---5-5-5-------2----2----2----2----2----2----2----2------|
E:-5-------5-------5-------5-----------2----5----2---------2----5----2------------|
B:----------------------------------------------------2-------------------2-------|

E:------------------------------------|
B:------------------------------------|
E:---4-4-----5-5-----7-7-----6--5-----|  x1
B:--0-0-0---2-2-2---4-4-4---3--2------|
E:-0-------0-------0-------0--0-------|
B:------------------------------------|

E:--------------------------------------------------------------------------------|
B:--------------------------------------------------------------------------------|
E:---0-0-----0-0-----0-0-----0-0---------0----0----0----0----0----0----0----0-----|
B:--5-5-5---5-5-5---5-5-5---5-5-5-------2----2----2----2----2----2----2----2------|
E:-5-------5-------5-------5-----------2----5----2---------2----5----2------------|
B:----------------------------------------------------2-------------------2-------|

E:------------------------------------|
B:------------------------------------|
E:---4-4-----5-5-----7-7-----6--5-----|  x2
B:--0-0-0---2-2-2---4-4-4---3--2------|
E:-0-------0-------0-------0--0-------|
B:------------------------------------|

Verse:

Chorus:

Interlude:

E:------------------------------------|
B:-------------------

Cucurucu Tabs by Nick Mulvey

 -----------------------------------------------------------------
Nick Mulvey - Cucurucu
-----------------------------------------------------------------

: Twheel

Tuning: EADGBE
Capo: 3 or 4 depending on how old the youtube video is. Capo 2 for the studio (EP) version.

So there isn't much structure to the tab in terms of timing. Sorry about that, but this
was quite a quick (and rushed) tab. To figure out timings please check out the youtube
videos below. Any corrections please add to the comments. The version tabbed here is the 
EP edition (however, this doesn't have a video of Nick playing, so may be difficult to
pick up the strumming pattern.)

http://www.youtube.com/watch?v=IUyifq_X1J4    (EP edition, newest. Capo 2)
http://www.youtube.com/watch?v=pfUjOfUyuak   (Livemusic Sessions, old. Capo 3)
http://www.youtube.com/watch?v=l-bRR3MdiaE   (Old version. Capo 4)

http://www.nickmulvey.com


INTRO -----------------------------------------------------------------


     strum x10   strum x6            strum x6                 strum x5
E|--0-----------0-------------------0------------------------3-------------------|
B|--1-----------1-------------------0------------------------3-------------------|
G|--0-----------2-------2-----------0------------------------0------------------0|
D|--h2----------4----------4--0-----2-----------0---0h2p-----0-----------0--0h2--|
A|--3--------X--X----------------2--2------0-h2----------2---2-------0h2---------|
E|--X--------3--3----------------0--0------------------------3-------------------|

     strum x10   strum x6            strum x6                 strum x5
E|--0-----------0-------------------0------------------------0-------------------|
B|--1-----------1-------------------0------------------------0-------------------|
G|--0-----------2-------2-----------0------------------------0-------------------|
D|--h2----------4----------4--0-----2-----------0---0h2p-----2-------------------|
A|--3--------X--X----------------2--2------0-h2----------2---2-------------------|
E|--X--------3--3----------------0--0------------------------0-------------------|


VERSE -----------------------------------------------------------------


     strum once   "softly in the evening dust, a woman is singing to me. Taking me..."
e|--2----------------------------------------------------------------------------|
B|--0----------------------------------------------------------------------------|
G|--2----------------------------------------------------------------------------|
D|--1----------------------------------------------------------------------------|
A|--2----------------------------------------------------------------------------|
E|--X----------------------------------------------------------------------------|

     strum once   "...back down the vista of my years, until I see"
e|--0----------------------------------------------------------------------------|
B|--1----------------------------------------------------------------------------|
G|--0----------------------------------------------------------------------------|
D|--2----------------------------------------------------------------------------|
A|--0----------------------------------------------------------------------------|
E|--X----------------------------------------------------------------------------|

     strum once
e|--2----------------------------------------------------------------------------|
B|--0----------------------------------------------------------------------------|
G|--2----------------------------------------------------------------------------|
D|--1----------------------------------------------------------------------------|
A|--2----------------------------------------------------------------------------|
E|--X----------------------------------------------------------------------------|

     start gentle strumming
e|--0--------------

Too Good chords – Nick Santino

 First Tab, I hope everyone enjoys.
Tuning: Standard(E,A,D,G,B,E)
CAPO 2
*The middle chorus has two parts with the same G,D,A,D progression*
Intro:  D , D , G , D , G , D , A , D 

   Verse 1:(all verses have this progression)
       D G D 
For a minute I was lost, thought I knew my way around
          G D A D 
met some people I could trust, thought they wouldn't let me down 
      D G D 
Well maybe it was you, Hell well maybe it was me 
       G D A D 
Oh we spoke in southern accents, never got no decent sleep


   Verse 2: 

Spent a night or two alone, Just punchin at the walls 

thinking that I lost it, but who hasn't after all 

And I listen to you cry and blame it all on me 

We joke about our past and how unhappy life could be

Dx2


Chorus:(all choruses follow the same progression)
      G D A D 
Oh I know its tough, to give it away
         G D A A 
just to take it back, pretend its all okay
          G D A D  
You're a broken heart, ain't a lot to lose
            G D A D 
you're too good for me, I'm too good for you


Verse 3:

We talked about your family, and how you wish that you were close
 
I wonder what thats like to hate the ones that you love most
 
Now the past 11 months, read like pages from a script, 

the one who havent finished yet, cause you have no time for it 


Chorus :

Oh I know its tough to give it away

just to take it back, pretend its all okay
 
Cause you're a broken heart, ain't a lot to lose 

you're too good for me, I'm too good for you

And I wouldn't take it back, but then I again I would

I'd rather quit before I try than wish I ever could 

Oh and I take the blame, hell I'll take what I can get 

cause sometimes the ones you love are the ones you should forget


Verse 5: 

Oh that night we felt like angels flying up all high and dry

singing Petty out the window in the middle of the night 

looking at it now, well it all went so fast 

you never know what you have until you don't want it back


Chorus:

Oh I know its tough to give it away 

just to take it back pretend its all okay
 
you're a broken heart ain't a lot to lose 

you're too good for me, and I'm too good for you 

Oh you're too good for me and I'm to good for you

Braungebrannte Haut solo chords – Nick P

 E  -  A E 
Braungebrannte Haut
 B 
Sand und Meer, Party on the Rocks
 A B E 
Salzige Küsse im Abendrot
 B E 
Verbrenn dich nicht an braungebrannter Haut.
 B E 
Verbrenn dich nicht an braungebrannter Haut.
 E  -  A E 
Braungebrannte Haut
 B 
Sand und Meer, Party on the Rocks
 A B E 
Salzige Küsse im Abendrot
 B E 
Verbrenn dich nicht an braungebrannter Haut.
 B E 
Verbrenn dich nicht an braungebrannter Haut.

 E  -  A E 
Braungebrannte Haut
 B 
Sand und Meer, Party on the Rocks
 A B E 
Salzige Küsse im Abendrot
 B E 
Verbrenn dich nicht an braungebrannter Haut.
 B E 
Verbrenn dich nicht an braungebrannter Haut.

 E  -  A E 
Braungebrannte Haut
 B 
Sand und Meer, Party on the Rocks
 A B E 
Salzige Küsse im Abendrot
 B E 
Verbrenn dich nicht an braungebrannter Haut.
 B E 
Verbrenn dich nicht an braungebrannter Haut.