Tag: nine

Nine Pound Hammer chords – Glen Campbell

 Nine Pound Hammer
Glen Campbell   
written by Merle Travis


Intro  F  

Verse 1

 F 
Well This nine pound hammer
                 Bb 
Is a little too heavy
        F C 
for my size 
              F 
honey for my size

Well This nine pound hammer
                 Bb 
Is a little too heavy
        F 
for my size 
 C F 
honey for my size

Verse 2

 F# 
Well It's a long way to Harlan
                    B 
It's a long way to Hazard
                      F# 
Just to get a little brew 
 C# F# 
yes to get a little brew

yes I'm going on the mountain
                 B 
gonna to see my baby
                    F# C# 
but I ain't coming back
                   F# 
No I ain't coming back

Verse 3

 G  
Well Roll on buddy
                C7 
Pull a load of coal
               G D 
but how can I pull
                       G 
When the wheels won't roll

I said roll on buddy
                   C7 
Don't you roll so slow
                 G D                               
Well, how can I roll 
                       G 
When the wheels won't go

riff  G C7 G D G C7 G D G 

Verse 4

 G# 
Well when I’m long gone
                 C#   
You can make my tombstone
                    G# D# 
Out of number nine coal
                    G# 
Out of number nine coal

I said when I’m long gone
                 C#   
You can make my tombstone
                    G# D# 
Out of number nine coal
                    G# 
Out of number nine coal

Verse 5

 E A 
Well Roll on buddy
                D 
Pull a load of coal
               A 
but how can I pull
 E A 
When the wheels won't roll
               
I said Roll on buddy 
                   D 
Don't you roll so slow
                A 
Well how can I pull
 E A 
When the wheels won't roll
 D A A7 
Roll on buddy

flyinglibra51
God Bless Glen Travis Campbell

Getting Smaller Tabs – Nine Inch Nails V4

 Nine Inch Nails - Getting Smaller


Tuning: Half-Step Down
Video Lesson: https://www.youtube.com/watch?v=bCo1gn_hAqU


Intro

Gtr 1 (Left channel) 
eb||----------------------|     
Bb||----------------------|
Gb||----------------------|
Db||----------------------|
Ab||-/7-7-7-7-7-7-7-7-5---| 3x
Eb||----------------------|

eb||----------------------|
Bb||----------------------|
Gb||----------------------|
Db||----------------------|
Ab||-5~-------------------|
Eb||----------------------|

eb||----------------------|     
Bb||----------------------|
Gb||----------------------|
Db||----------------------|
Ab||-/7-7-7-7-7-7-7-7-5---|
Eb||----------------------|

Gtr 2 (Right channel)
eb||-----------------------------------------10----|
Bb||-----------------------------------------------|
Gb||-444444444-4-4-4-5-7-5---7-7-7-7-7-7-7-7----7--|
Db||-----------------------------------------------|
Ab||-----------------------------------------------|
Eb||-----------------------------------------------|


eb||-------10--------------10----------------------|
Bb||-----------------------------------------------|
Gb||-7-7-7----7-7-7-7-7-7-----9-9-9-9-9-9-9-9-9-7--|
Db||-----------------------------------------------|
Ab||-----------------------------------------------|
Eb||-----------------------------------------------|


Verse

eb||-----------------------------|
Bb||-----------------------------|
Gb||-----------------------------|
Db||---------9/7-0-5--2--12-12-9-|
Ab||---------7/6-0-5--2--10-10-7-|
Eb||-x-x-x-0---------------------|


Chorus

eb||------------------------------------------|
Bb||------------------------------------------|
Gb||------------------------------------------|
Db||------------------------------------------|
Ab||------------------------------------------|
Eb||-15~--0-12-0-11-10-0-9--0-10--0-12-0-15-0-|


Breakdown

eb||--------------------------|
Bb||--------------------------|
Gb||-5-5--5-5-----------------|
Db||-5-5--5-5--5-7-7--7-7-7-7-|
Ab||-3-3--3-3--5-7-7--7-7-7-7-|
Eb||-----------3-5-5--5-5-5-5-|

I Would For You Tabs – Nine Inch Nails

 Artist: Nine Inch Nails
Song: I would for you
Album Hesitation Marks (2013)

Please Rate!

Tuning drop D for all Guitars

Guitar 1 (D A D G B e)
Guitar 2 (D A D G B e)
Guitar 3 (D A D G B e)

Verse: 'What a pathetic string of words' [0.19-1.12]

Guitar 1 (Clean) (short delay about 1 repeat for each mute)
e|-----------------------------------------------------------------|
B|-------x-x------------x-x-----------x-x----------x-x--------x-x--|
G|-------x-x------------x-x-----------x-x----------x-x--------x-x--|
D|-------x-x------------x-x-----------x-x----------x-x--------x-x---|x2
A|-----------------------------------------------------------------|
D|-----------------------------------------------------------------|

Guitar 2 (Distorted) (w/delay)[0.47-1.12]                
              P.M|-----------------------------------------------------------|
e|---------------------------------------------------------------------------|
B|---------------------------------------------------------------------------|
G|---------------------------------------------------------------------------|
D|-------------------------------------------1-1-1-1-1-1-1-1-----------------|
A|-----3\1-3/1-----3-3-3-3-3-3-3-3-3-3--3-3------------------3-1-3-1-3(x4)---|
D|---------------------------------------------------------------------------|


Chorus [1.12-1.39] 'See I keep lying to myself'

Guitar 1 (Chorus) (Distorted)
e|------------------------------------------------------------------------------------------|
B|------------------------------------------------------------------------------------------|
G|------------------------------------------------------------------------------------------|
D|----15-15-15-15-15-15-15-15--13-13-13-13-13-13-13-13--6-6-6-6-6-6-6-6-6-6-6-6-6-6-6-6-----|
A|----15-15-15-15-15-15-15-15--13-13-13-13-13-13-13-13--6-6-6-6-6-6-6-6-6-6-6-6-6-6-6-6-----|
D|----15-15-15-15-15-15-15-15--13-13-13-13-13-13-13-13--6-6-6-6-6-6-6-6-6-6-6-6-6-6-6-6-----|

Guitar 1 Continued...
e|------------------------------------------------------------------------------------------|
B|------------------------------------------------------------------------------------------|
G|------------------------------------------------------------------------------------------|
D|----15-15-15-15-15-15-15-15--13-13-13-13-13-13-13-13--8-8-8-8-8-8-8-8-6-6-6-6-6-6-6-6-----| (X2
A|----15-15-15-15-15-15-15-15--13-13-13-13-13-13-13-13--8-8-8-8-8-8-8-8-6-6-6-6-6-6-6-6-----|
D|----15-15-15-15-15-15-15-15--13-13-13-13-13-13-13-13--8-8-8-8-8-8-8-8-6-6-6-6-6-6-6-6-----|

Guitar 2 (Chorus) (Distorted)
I'm sure this part is some kind of synth, I play this part using: reverse delay mixed 
along with the space setting on my Reverb Pedal.
 
e|------------------------------------------------------------------------------------------|
B|------------------------------------------------------------------------------------------|
G|----10brb11-8brb9---------------10brb11-8brb9---------------------------------------------|
D|------------------6brb7-6brb7-------------------8brb9--6brb7------------------------------| x2
A|------------------------------------------------------------------------------------------|
D|------------------------------------------------------------------------------------------|

Verse [1.39-1.42]                             
Guitar 2 (Overdriven)   
                             [Delay]   
P.M|------------------------|
e|------------------------------------|
B|------------------------------------|
G|------------------------------------|
D|--2-2-2-2-2-2-2--------------5-3----|
A|-------------------3-1-3-1---3\1----|
D|------------------------------------|

Verse [1.42-2.15] 'Didn't it seem like something more'

Guitar 2 (Overdriven) 
P.M|------------------------------------------------------------|
e|--------------------------------------------------------------|
B|--------------------------------------------------------------|
G|----------------------

The Ninety Nine chords – Citipointe Live

 THE NINETY NINE KEY: Ab BPM: 75
Words & Music by Colin Moore
©2012 Colin Moore/Citipointe Music
Used by Permission
CCLI License No. 17188



INTRO:
 Fm Eb Db 
VERSE 1:
 Fm 
With hands lifted high
 Eb 
I know You’ve heard my cry
 Db 
For mercy
Jesus Son of God
Your love goes on and on
And finds me
VERSE 2:
Glory undefined
Unmeasured and divine
I worship
I worship
You and You alone
Majestic on the throne
Of heaven
Of heaven
CHORUS:
 Ab 
Hear the mountains tremble
 Fm 
Our God is strong and able
 Eb 
Your kingdom coming down
 Db 
Your kingdom coming down
 Ab 
Merciful and mighty
 Fm 
For love You left the ninety-nine
 Eb 
Saviour to the lost and blind
 Db 
Saviour to me
VERSE 3:
 Fm 
As the thunder starts to roll
 Eb 
I’ll hold to what I know
 Db 
That you are my high tower
Fortress in dark hours
 Fm 
That Your promises are true
 Eb 
And I no longer stand accused
 Db 
The cross has crushed my shame

BRIDGE:
 Ab 
Hallelujah I’ll shout it loud
 Fm 
Hallelujah I’ll sing about
 Eb 
Your love Your love Your love
 Db 
Your love Your love Your love
 


THE NINETY NINE KEY: Ab BPM: 75
Words & Music by Colin Moore
©2012 Colin Moore/Citipointe Music
Used by Permission
CCLI License No. 17188

Nine Out Of Ten chords – Caetano Veloso

 
Tom:  C Dm  -  C  -  Bb  -  G 

Walk down Portobello road to the sound the reggae
I'm alive
The age of gold, yes the age the age of old
The age of gold
The age of music is past
I hear them talk as is walk a hear them talk
I hear they say
Expect the final blast
Walk down Portobello road to the sound the reggae
I'm alive

I'm alive and vivo muito vivo, vivo, vivo
Feel the sound of music banging in my belly, belly, belly
And I Know that one day I must die
I'm alive
Yes I know that one day I must die
I'm alive

I'm alive and vivo muito vivo, vivo, vivo
In the Eletric Cinema or on the telly, telly, telly
Nine out of ten movie stars make me cry
I'm alive
nine out of ten film stars make me cry
I'm alive

Adrenaline Tabs by Nine Lashes

 Artist: Nine Lashes (feat. Trevor McNevan of Thousand Foot Krutch)
Song: Adrenaline
 World We View
Tuning: Drop C

Intro:

(Repeat 4X)
D|-------------------------------------------|
A|-------------------------------------------|
F|-------------------------------------------|
C|--14\--14\---------------------------------|
G|--14\--14\---------------------------------|
C|--14\--14\---------------------------------|

Main Riff:

D|---------------------------------------------|
A|---------------------------------------------|
F|---------------------------------------------|
C|--2--0-2h3-2--0--x5----2--0-2h3-2--0-xx0--x--|
G|--2--0-2h3-2--0--x5----2--0-2h3-2--0-xx0--x--|
C|--2--0-2h3-2--0--x5----2--0-2h3-2--0-xx0--x--|

D|---------------------------------------------|
A|---------------------------------------------|
F|---------------------------------------------|
C|--2--0-2h3-2--0--x5----2--0-2h3-2--0-xxxx----|
G|--2--0-2h3-2--0--x5----2--0-2h3-2--0-xxxx----|
C|--2--0-2h3-2--0--x5----2--0-2h3-2--0-xxxx----|

Verse 1:

D|--------------------------------------------|
A|--------------------------------------------|
F|--------------------------------------------|
C|--------------------------------------------|
G|--------------------------------------------|
C|--(2x16)-(11x8)-(7x8)--(2x16)-(11x8)-(5x8)--| 

D|----------------------------------------|
A|----------------------------------------|
F|----------------------------------------|
C|--2-2-2--2-2-2--2-x-2-2-2---------------|
G|--2-2-2--2-2-2--2-x-2-2-2---------------|
C|--2-2-2--2-2-2--2-x-2-2-2-(11x8)-(7x8)--|

D|----------------------------------------|
A|----------------------------------------|
F|----------------------------------------|
C|--2-2-2--2-2-2--2-x-2-2-2---------------|
G|--2-2-2--2-2-2--2-x-2-2-2---------------|
C|--2-2-2--2-2-2--2-x-2-2-2-(11x8)-(5x8)--|

Bridge 1:

D|----------------------------------------------------------|
A|----------------------------------------------------------|
F|----------------------------------------------------------|
C|--2-2--2-2--2-2--2-2--2-2--2-5-5--5-5--0-0--0-0--2h3p2p0--|
G|--2-2--2-2--2-2--2-2--2-2--2-5-5--5-5--0-0--0-0--2h3p2p0--|
C|--2-2--2-2--2-2--2-2--2-2--2-5-5--5-5--0-0--0-0--2h3p2p0--|
    * *  * *  * *  * *  * *  * * *  * *  * *  * *  
D|----------------------------------------------------------|
A|----------------------------------------------------------|
F|----------------------------------------------------------|
C|--2-2--2-2--2-2--2-2--2-2--2-5-5--5-5--0-0----------------|
G|--2-2--2-2--2-2--2-2--2-2--2-5-5--5-5--0-0----------------|
C|--2-2--2-2--2-2--2-2--2-2--2-5-5--5-5--0-0----------------|
    * *  * *  * *  * *  * *  * * *  * *  * *
Pre-Chorus 1:

(Repeat 2x)
D|----------------------------------------------|
A|----------------------------------------------|
F|----------------------------------------------|
C|--2--0-2h3-2--0--x5---------------------------|
G|--2--0-2h3-2--0--x5---------------------------|
C|--2--0-2h3-2--0--x5---------------------------|

Chorus 1:

(Repeat 2x)
D|-----------------------------------------------|
A|-----------------------------------------------|
F|--4--4--4--4--7--7--7--7-----------------------|
C|--x--x--x--x--x--x--x--x-----------------------|
G|--5--5--5--5--9--9--9--9-----------------------|
C|--5--5--5--5--9--9--9--9-----------------------|

D|------------------------------------------------|
A|------------------------------------------------|
F|------------------------------------------------|
C|--0h2--x-x-0h2-x-x-x-x-x-x-0h2--x-x-0h2--x-7p5--|
G|--0h2--x-x-0h2-x-x-x-x-x-x-0h2--x-x-0h2--x-7p5--|
C|--0h2--x-x-0h2-x-x-x-x-x-x-0h2--x-x-0h2--x-7p5--|

Verse 2:

D|--------------------------------------------|
A|--------------------------------------------|
F|--------------------------------------------|
C|--------------------------------------------|
G|------

Afterglow Tabs by Nine Lashes

 tuning this song for standard :) 
Enjoy it!!
I hope you can play it :D


E:--------------------------------:
A:--7-------5-------2-----3-------:
D:---(X5)----(X5)----(X5)--(X5)---:
G:--9-------7-------4-----5-------:
B:--------------------------------:
e:--------------------------------:

E:-----------------------3--------:
A:-7-------5-------2-------(X5)---:
D:---(x5)-----(X5)--(X5)-5--------:
G:-9-------7-------4--------------:
B:--------------------------------:
e:--------------------------------:

E:--------------------------------:
A:--0-----------------------------:
D:------5---------------5---------:
G:----------5-------5-------------:  (X2)
B:--------------0-----------------:
e:--------------------------------:


E:-1------------------------------:
A:--------------------------------:
D:------3---------------3---------:  (X2)
G:----------0------0--------------:
B:--------------1-----------------:
e:--------------------------------:



E:--------------------------------:
A:--7-------5-------2-----3-------:
D:---(X5)----(X5)----(X5)--(X5)---:
G:--9-------7-------4-----5-------:
B:--------------------------------:
e:--------------------------------:

E:-----------------------3--------:
A:-7-------5-------2-------(X5)---:
D:---(x5)-----(X5)--(X5)-5--------:
G:-9-------7-------4--------------:
B:--------------------------------:
e:--------------------------------:

E:--------------------------------:
A:--0-----------------------------:
D:------5---------------5---------:
G:----------5-------5-------------:  (X2)
B:--------------0-----------------:
e:--------------------------------:


E:-1------------------------------:
A:--------------------------------:
D:------3---------------3---------:  (X2)
G:----------0------0--------------:
B:--------------1-----------------:
e:--------------------------------:


E:--------------------------------:
A:--0-----------------------------:
D:------5---------------5---------:
G:----------5-------5-------------:  (X2)
B:--------------0-----------------:
e:--------------------------------:

E:--3-----------------------------:
A:--------------------------------:
D:------5---------------5---------:
G:----------5-------5-------------:  (X2)
B:--------------0-----------------:
e:--------------------------------:

(#Pre-Hook#)
Cause when You right in front of me 
Play This Chords 
(F/Am/G)
(F/G)

(Chorus)
I Stand Here today

E:--5--3--1--3-----------------:
A:--7--3--3--5-----------------:
D:--7--5--3--5-----------------:
G:-----------------------------:  (X2)
B:-----------------------------:
e:-----------------------------:

E:-1-1-1--3-3-3----------------:
A:-3-3-3--5-5-5----------------:
D:-3-3-3--5-5-5----------------:
G:-----------------------------:  (X2)
B:-----------------------------:
e:-----------------------------:

In Verse 2 Play like verse 1 = ="

E:--------------------------------:
A:--7-------5-------2-----3-------:
D:---(X5)----(X5)----(X5)--(X5)---:
G:--9-------7-------4-----5-------:
B:--------------------------------:
e:--------------------------------:

E:-----------------------3--------:
A:-7-------5-------2-------(X5)---:
D:---(x5)-----(X5)--(X5)-5--------:
G:-9-------7-------4--------------:
B:--------------------------------:
e:--------------------------------:

E:--------------------------------:
A:--0-----------------------------:
D:------5---------------5---------:
G:----------5-------5-------------:  (X2)
B:--------------0-----------------:
e:--------------------------------:


E:-1------------------------------:
A:--------------------------------:
D:------3---------------3---------:  (X2)
G:----------0------0--------------:
B:--------------1-----------------:
e:--------------------------------:



E:--------------------------------:
A:--7-------5-------2-----3-------:
D:---(X5)----(X5)----(X5)--(X5)---:
G:--9-------7-------

All Time Low Tabs by Nine Inch Nails

 All Time Low - Nine Inch Nails


intro

--------------------|
--------------------|
--------------------|
-10b1210--10s15-----|
--------------------| x4
--------------------|

Riff

-------------------------------|
-------------------------------|
-------8h10--10--13------------|
-10h12-------------10--13p12---|
-------------------------------|
-------------------------------| x3

------------------------------------|
------------------13-13-13-13-13-13-|
------8h10--11-11-11-11-11-11-11-11-|
-10h12------------------------------|
------------------------------------|
------------------------------------|

chorus

---------------------|
---------------------|
------------12s13----|
--12--14-15----------|
---------------------|
---------------------| x 4

Nine Black Poppies chords – Mountain Goats

 I found this on the Mountain Goats forums and figured I'd cross-post it here since 
it wasn't up. Everything below my signature is the work of the guy below.
~Jackson

I typed up a cleaner/more complete version and thought I'd share it.  I got 
everything from the first tab, except I think the Bm is a B.  
(And by the video on YouTube (www.youtube.com/watch?v=8ajuJ82ynjQ), I think the 
first chord is slightly off, but it sounds alright to me.)
~Dan (daniel dot trombley at gmail dot com)

-Chords-

 C       x32010
 D       x00232
 Em      022000
 Am      x02210
 B       x2444x
 Aadd9   577600
Badd11 799800

[Main Riff]
    Eb D C# C E Em 
e--0--0---0--0---0--0--
B--0--0---0--0---0--0--
G--0--0---0--0---0--0--
D-------------------2--
A--6--5---4--3---7--2--
E-------------------0--

[Riff]
when i got home i meant to give you some sweet chrysanthemum
[Riff]
the wind chimes were ringing all wrong and you were standing in the doorway singing along

       C D Em Am 
and i tried to remember how nice it had been a long long time ago
                     Em B Em 
but i couldn't remember i honestly could not remember
 Aadd9           Badd11             Em Am    
 and a package came for you today from the hunan province
 C D Em Am   
 the postmark burning jetblack in the summer sun
     C D Em Am 
 someone was changing someone was changing from the inside out
        Em B Em 
 and i turned around to face you

[Riff]
sweet peas in the garden, all in full bloom
[Riff]
and i thought i heard the traces of an old song murmuring in the room

         C D Em Am 
like a half-remembered conversation, i let it slip away
                     Em B Em 
but i couldn't remember i honestly could not remember
 Aadd9           Badd11             Em Am    
 and a package came for you today from the hunan province
 C D Em Am   
 the postmark burning jetblack in the summer sun
     C D Em Am 
 someone was changing someone was changing from the inside out
        Em B Em 
 and i turned around to face you

LEAVES EYES – Nine Wave Maidens Lyrics

Nine wave maidens
Giant beauties
Soundly asleep on Midgard sands

Someone is walking
Hungry eyes gazing
The guard of the sky beholding their pride

Calling the waves
Playing in the shallows
What will they want
A seafarer’s heart
Come rain, come shine
The patience never breaking
Oh how they blind a traveler’s heart

Atla, Sindur, Egia, Ulfrun
Never profound
Never alone

Heimdall born was he of mother’s nine
Heimdall son is he of sisters nine

Calling the waves

Playing in the shallows
What will they want
A seafarer’s heart
Come rain, come shine
The patience unbreakable
Oh how they blind a traveler’s eye

Calling nine waves
Singing in the shadows
What else do they haunt than a lonely man’s heart