Tag: no

No Brainer chords by DJ Khaled

[Intro]
F      G    Am
We the Best Music!
Csus2     G    F
Another one!
F      G    Am
DJ Khaled!


[Chorus]
F                    G                   Am
You stick out of the crowd, baby, it's a no-brainer
Csus2         G       F
It ain't that hard to choose
F                 G                  Am
Him or me, be for real, baby, it's a no-brainer
Csus2   G         F
You got your mind unloose
F            G            Am
Go hard and watch the sun rise
Csus2    G                 F
One night'll change your whole life
F            G                     Am
Pop the top, drop-top, baby it's a no-brainer
Csus2   G         F
Put 'em up if you with me
F               G          Am
Yeah, yeah-eah, yeah, yeah-eah-eah
Csus2        G
In the middle, woah
Dm             C          F
Woah-woah-oah, oh, oh-oh, ooh
F
Put 'em high
G
Put 'em high
F             G          Am
Yeah-eah-eah, yeah, yeah-eah-eah
Csus2      G
Both arms, yeah
F             G           Am
Woah-woah-oah, oh, oh-oh, ooh

Put 'em high


[Verse 1]

Quavo!
F                   G       Am
Mama told you don't talk to strangers (mama, mama, mama!)
 Csus2                 G                      F
But when you're ridin' in the drop, you can't explain it (skrrt, skrrt, skrrt-skrrt)
F                    G          Am
What you been waitin' on this whole time? (Yeah)
 Csus2               G           F
I blow the brains outta your mind (ooh)
F                 G             Am
And I ain't talkin' 'bout physically (no)
Csus2             G              F
I'm talkin' 'bout mentally (talkin' 'bout mentally)
 F                G              Am
She lookin', she look like she nasty (she lookin')
 Csus2            G              F
She lookin', she look like she classy (she lookin')
  F               G              Am
She lookin', just look at her dancin' (look at her)
  Csus2           G              F
She lookin', I took her to the mansion (yeah, yeah)


[Chorus]
F                    G                   Am
You stick out of the crowd, baby, it's a no-brainer
Csus2         G       F
It ain't that hard to choose
F                 G                  Am
Him or me, be for real, baby, it's a no-brainer
Csus2   G         F
You got your mind unloose
F            G            Am
Go hard and watch the sun rise
Csus2    G                 F
One night'll change your whole life
F            G                     Am
Pop the top, drop-top, baby it's a no-brainer
Csus2   G         F
Put 'em up if you with me
F               G          Am
Yeah, yeah-eah, yeah, yeah-eah-eah
Csus2        G
In the middle, woah
Dm             C          F
Woah-woah-oah, oh, oh-oh, ooh
F
Put 'em high
G
Put 'em high
F             G          Am
Yeah-eah-eah, yeah, yeah-eah-eah
Csus2      G
Both arms, yeah
F             G           Am
Woah-woah-oah, oh, oh-oh, ooh

Put 'em high


[Verse 2]

F                G              Am
Don't look rich, I ain't got no chain (huh)
Csus2            G              F
Not on the list, I ain't got no name
F                G              Am
But we in this bitch, bitch, I'm not no lame
Csus2            G              Am
And I keep it Ben Franklin, I'm not gon' change
F                G              Am
Lot of these hoes is messy (messy)
Csus2            G             Am
I just want you and your bestie
F                G             Am
I don't gotta answer for whenever you text me
Csus2            G             F
It's multiple choice and they all wanna test me
F                G             Am
She ch-ch-ch-ch-choosin' the squad
Csus2            G             F
She tryna choose between me, Justin, Qua' and Asahd
F                G             Am
She told me that she love that I make music for God
Csus2            G             F
I told her I would love to see that p**** applaud


[Chorus]
F                    G                   Am
You stick out of the crowd, baby, it's a no-brainer
Csus2         G       F
It ain't that hard to choose
F                 G                  Am
Him or me, be for real, baby, it's a no-brainer
Csus2   G         F
You got your mind unloose
F            G            Am
Go hard and watch the sun rise
Csus2    G                 F
One night'll change your whole life
F            G                     Am
Pop the top, drop-top, baby it's a no-brainer
Csus2   G         F
Put 'em up if you with me
F               G          Am
Yeah, yeah-eah, yeah, yeah-eah-eah
Csus2        G
In the middle, woah
Dm             C          F
Woah-woah-oah, oh, oh-oh, ooh
F
Put 'em high
G
Put 'em high
F             G          Am
Yeah-eah-eah, yeah, yeah-eah-eah
Csus2      G
Both arms, yeah
F             G           Am
Woah-woah-oah, oh, oh-oh, ooh

Put 'em high


[Verse 3]
F            G      Am
Walked down, had me sittin' up
Csus2        G                F
Demanded my attention, had to give it up
F             G          Am
Look like somebody designed you
Csus2             G             F
Drop-dead gorgeous, you make me wanna live it up
F            G      Am
Your presence is critical
Csus2             G         F
Movin' my soul, yeah you're spiritual
F         G         Am
They hate it when you notice me
Csus2             G        F
Like everybody else invisible (ooh)
F         G       Am
Breakin' all the rules (oh-oh)
Csus2            G      F
So above the law (so above the law)
F        G        Am
I'll be your excuse (damn right)

Uh, and you go wrong, no


[Chorus]
F                    G                   Am
You stick out of the crowd, baby, it's a no-brainer
Csus2         G       F
It ain't that hard to choose
F                 G                  Am
Him or me, be for real, baby, it's a no-brainer
Csus2   G         F
You got your mind unloose
F            G            Am
Go hard and watch the sun rise
Csus2    G                 F
One night'll change your whole life
F            G                     Am
Pop the top, drop-top, baby it's a no-brainer
Csus2   G         F
Put 'em up if you with me
F               G          Am
Yeah, yeah-eah, yeah, yeah-eah-eah
Csus2        G
In the middle, woah
Dm             C          F
Woah-woah-oah, oh, oh-oh, ooh
F
Put 'em high
G
Put 'em high
F             G          Am
Yeah-eah-eah, yeah, yeah-eah-eah
Csus2      G
Both arms, yeah
F             G           Am
Woah-woah-oah, oh, oh-oh, ooh

Put 'em high

[Outro]
F           G     Am
It's We The Best Music
Csus2      G     F
Way high
F          G      Am
It's Father of Asahd
Csus2     G      F
Another one

Yuki No Ashiato chords by L’Arc~en~Ciel

[Verse]

     G              D       Am7    D      Am7   D
Toiki ga sutto nobotte fuyumeku sora tokedashita
     G              D       Am7  D      Am7   D
Sunda kuuki ni kokoro wa arawaretesa ka noboru

[Bridge]

     C               D             Em
Tachidomattari, mawarimichi wo shita kedo
      C            D                Em
Hitotsu hitotsu ga taisetsu na kioku
      C     D    C        D    C                D7
Kyou no you ni itsu no hi mo kimi to tomo ni...


[Chorus]

       G         B       C          Cm
Furidashita yuki ga atari wo somete
        G        B          C        Cm         G
Bokura wo sotto tsutsumikonde yuku yo yasashiku


[Verse 2]

      G              D        Am7    D     Am7    D
Kimi ga ita kara ima demo mae wo muite susumeru nda
    G              D        Am7  D     Am7  D
Irodoru fuyu wo aruite kokoro kara sou omou


[Bridge 2]

      C           D                 Em
Hodou zoi ni wa kozue ni saku yuki no hana
     C             D               Em
Shiroi KYANBASU rakugaki no romen
    C    D     C   D   C       D7
Tsumetai te kasaneai atatameou


[Chorus 2]

      G       B         C      Cm
Furikaeri mireba narabu ashiato
      G        B         C     Cm 
Koronda ato wo nagame hohoemiau fuyu no hi
Em         D          C
Itsumo te ni te wo toru you ni
 Em        D          C          D C Bm Am G
Koushite shikkari fumishime yukou


[Solo] 

G B C Cm (2x)


[Chorus 3]

        G        B         C      Cm
Furitsumoru yuki to shiroi ashiato
        G        B       C     Cm 
Futari de egaku you ni aruiteku itsumademo

[Outro]

Em       D       C
Sotto yorisou mitai ni
    Em       D         C           D C Bm Am G
Mou sukoshi yukkuri issho ni kaerou

No Good In Goodbye Tabs – The Script Vsion 1

 NO GOOD IN GOODBYE      -       the Script

Capo 2

Intro:
     1           2           3           4
e|--/----------------------------------------------/
B|5s/10-10-10-10-10-10-10-10-10-10-10-10-10-10-10s8/
G|--/----------------------------------------------/
D|--/----------------------------------------------/
A|--/----------------------------------------------/
E|--/----------------------------------------------/

  1       2       3       4        
e|--------------------------------/
B|8-8-8-8-8-8-8-8-8-8-8-8-8-8-8-8s/
G|--------------------------------/
D|--------------------------------/
A|--------------------------------/
E|--------------------------------/

  1           2           3           4
e|-----------------------------------------------/
B|12-12-12-12-12-12-12-12-12-12-12-12-12-12-12s14/
G|-----------------------------------------------/
D|-----------------------------------------------/
A|-----------------------------------------------/
E|-----------------------------------------------/

  1           2           3           4
e|---------------------------------------------/
B|14s10-10-10-10-10-10-10-10-10-10-10-10s5-5-5s/
G|---------------------------------------------/
D|---------------------------------------------/
A|---------------------------------------------/
E|---------------------------------------------/

A  Aaa – Em7  aa – G  aa – D  aah     2x 


  Em/B                              C
  1       2       3       4       1       2       3       4
e|3-------3-------3-------3---5--/3-------3-------3-------3---5--/
B|----5-------5-------5----------/----5-------5-------5----------/
G|--4---4---4---4---4---4---4---4/--5---5---5---5---5---5---5---5/
D|-------------------------------/-------------------------------/
A|-------------------------------/-------------------------------/
E|-------------------------------/-------------------------------/
1  All the things that we've lost   Breaking up comes at a cost
2  Every word I try to choose       Either way I'm gonna lose


  G/D                               D
  1       2       3       4       1       2       3       4
e|7-------7-------7-------8---7--/5-------5-------5-------7------/
B|----8-------8-------8----------/----7-------7-------7-------7--/
G|--7---7---7---7---7---7---7---7/--7---7---7---7---7---7---7---7/
D|-------------------------------/-------------------------------/
A|-------------------------------/-------------------------------/
E|-------------------------------/-------------------------------/
1  I know i'll miss this mistake                                  
2  Can't take the ache from heart -  break           Oh but as you


  C                                 D
  1       2       3       4       1       2       3       4
e|3-------3-------3-------3---5--/5-------5-------5-------10-----/
B|----5-------5-------5----------/----7-------7-------7----------/
G|--5---5---5---5---5---5---5---5/--7---7---7---7---7---7--------/
D|-------------------------------/-------------------------------/
A|-------------------------------/-------------------------------/
E|-------------------------------/-------------------------------/
2  walk away          you don’t     hear me say


Chorus:
A 
    Where's the "good" in goodbye
Em7 
      Where's the "nice" in nice try
G 
    Where's the "us" in trust gone
D                                 A 
    Where's the "soul" in soldier     on
Now I'm the "low" in lonely
Em7 
     ‘Cos I don't own you only
G 
    I can take this mistake but
D 
    I can't take the "ache" from heartbreak

A        Em7
   No –        oh 
                                     G        D         
I can't take the "ache from heart –    break  


  Em/B                              C
  1       2       3       4       1       2       3       4
e|3-------3-------3-------3---5--/3-------3-------3-------3---5--/
B|----5-------5-------5----------/----5-------5-------5----------/
G|--4---4---4---4---4---4---4---4/--5---5---5---5---5---5-

I Aint No Nice Guy chords – Motörhead Vsion 4

 I Ain't No Nice Guy by Motörhead

 Máirt

This version is with the musically correct chord shapes and names taking into account that the tuning is
down a Half-Step. Version 2 is my work too and may be less confusing for beginners. For the sake of accuracy
though, here's this one.

Tuning: Down a half step -  D# G# C# F# A# D# 

Intro

 G# D# C#  x2

Verse

 G# D# C# 
When I was young I was the nicest guy I knew

 G# F# C# 
I thought I was the chosen one

 G# D# C# 
But time went by and I found out a thing or two

 G# F# C# 
My shine wore off as time wore on

 G# D# C# 
I thought that I was living out the perfect life

 G# F# C# 
But in the lonely hours when the truth begins to surprise

 G# D# C# 
I thought about the times when I turned my back and sulked

 G# F# C# 
I ain't no nice guy after all


The Second verse is the same chords and there is an extra line...

When I was young I was the only game in town
I thought I had it down for sure,
But time went by and I was lost in what I found
The reasons blurred, the way unsure
I thought that I was living life the only way
But as I saw that life was more than day to day
I turned around, I read the writing on the wall

I ain't no nice guy after all

 G# F# G# 
I ain't no nice guy after all


Bridge

 F A# 
In all the years you spend between your birth and death

 F A# 
You know there's lots of times when you should have saved your breath

 D# G# 
It comes as quite a shock when that trip leads to a fall

            F# C# 
I ain't no nice guy after all

 G# F# G# 
I ain't no nice guy after all


Solo

 F A# F A# D# G# C# G# F# G# 

The third verse is the first verse repeated but with the added line...

 G# F#               (C#)G#
I ain't no nice guy after all

Point Of No Return Tabs – heat

 Point Of No Return - H.E.A.T
Tuning - Standard 
 Derek Schmidt

check out my page for cover http://www.hammerheadrocks.com/#!dereks-page/c11nt

Intro
e--3------6----------8-----8----------|
B----3------3---3------6-----6---6----|
G------0------0---0------0-----0---0--|
D-------------------------------------|
A-------------------------------------|
E-------------------------------------| X3

e---------1----------------1----------|
B----1------1---1------1-----1---1----|
G--3---3------3---3--2---2-----1---2--|
D-------------------------------------|
A-------------------------------------|
E-------------------------------------|


Then do this when the band kicks in
e-------------------|
B-------------------|
G------3-----5------|
D--5---3-----5---3--|
A--5---1-----3---3--|
E--3-------------1--|

Verse
e----------------------------|
B----------------------------|
G-------3----3--5------------|
D--5----3----3--5----3----3--|
A--5--x-1--x-1--3----3----3--|
E--3--x------------x-1--x-1--|

Lick right before vocals
e-----------|
B-----------|
G-----------|
D--0--------|
A----3p1----|
E--------3--|

Interlude thing
e-----------------------------|
B-----------------------------|
G-----------------------------|
D---7----7----7-------7----7--|
A---7----7----7--8----7----7--|
E---5--x-5--x-5--5--x-5--x-5--| X2

Back to verse


Pre chorus
e-----------------------------------|-------------------------|
B--4-4-4-4---4-4-4-4----------------|-4-4-4-4---4-4-4-4-------|
G--3-3-3-3---3-3-3-3----------------|-3-3-3-3---3-3-3-3-------|
D--1-1-1-1---1-1-1-1----------------|-1-1-1-1---1-1-1-1----3--|
A-----------------------------------|----------------------3--|
E---------------------(1)/(12)\(1)--|----------------------1--|
                 slide around these notes


Chorus
e---------------------------------------------------------|
B---------------4---4--------------------4----------------|
G---------------3---3--------------------3----------------|
D--5--3-5---3---1---1---3---5--3-5---3---1---3---5---3-3--|
A--5--3-5---3-----------3---5--3-5---3-------3---5---3-3--|
E--3--1-3---1-----------1---3--1-3---1-------1---3---1-1--|

Lick after chorus
e-----------|
B-----------|
G-----------|
D-----------|
A------1----|
E--3-1---3--|

Solo after chorus
e---------------------------------------------------------------|---------|   |--------|
B-18b20--18b20--15h18p15-----15---------------------------------|---------|   |--------|
G-------------------------17----17b19r17p15-17b19---5b7r5p3-5b7-|-3h5p3---|   |--------|
D---------------------------------------------------------------|-------5-|   |-5p3h5--|
A---------------------------------------------------------------|---------|   |--------|
E---------------------------------------------------------------|---------|X3 |--------|


Verse


Pre Chorus


Chorus


Bridge other guitar does the clean intro
e--------|
B--------|
G--------|
D--5==---|
A--5==---|
E--3==---|


Then this comes after
e--------------------------------------------------------------------------|
B--------------------------------------------------------------------------|
G--------------------------------------------------------------------------|
D--5-5----------5---5-5---------------5-5-------5---5--5-5----5--5-5---5-5-|
A--5-5----------5---5-5---------------5-5-------5---5--5-5----5--5-5---5-5-|
E--3-3----------3---3-3---------------3-3-------3---3--3-3----3--3-3---3-3-|
The rhythm is something like this but your gonna need to listen to song to get it down


e----------------------------------------------------------|     |-------|
B----------------------------------------------------------|     |-------|
G----------------------------------------------------------|     |-------|
D---5-5-5-5---5-5-5-5-----5-5-5-5---5-5-5-5----------------|     |--3=---|
A---5-5-5-5---5-5-5-5-----5-5-5-5---5-5-5-5----------------|     |--3=---|
E---3-3-3-3---3-3-3-3-----3-3-3-3---3-3-3-3--(1)/(12)\(1)--| X4  |--1=---|

Solo
e--------------

Theres No Me Without You chords – Glen Campbell

 There's No Me Without You
Glen Campbell

Intro   C# 

Verse 1

 C# C#7 
The sun doesn't have to shine
                        C# 
It doesn't matter what I do
            F# 
There's no me 
         C# 
without you
                     C#7 
We never have to be afraid
                       C# 
Heaven is a place for two
            F# 
There's no me 
         C# G# C# F# G#  
without you

Chorus 1

 G# 
We shall be forever two

There's no me 
         C# 
without you

Verse 2

 C# C#7 
Once upon a lonely day
          C# 
God came thru
            F# 
He blessed me 
      C# 
with you
                      C#7 
I'm never gonna fade away
                          C#   
Your love won't allow me to
           F# 
Can't you see
        C# G# C# G#   
I love you

Chorus 2

 G# C# G# 
We shall be forever two
            C# 
There's no me 
 G# C# 
without you

(Long Lead Riff)

 C# C#7 C# F# C# C#7 F# C# F# C# F# C# F# C# 


flyinglibra51
God Bless Glen Travis Campbell

No Death Tabs – Mirel Wagner

 -------------------------------------------------------------------------------
                             NO DEATH - Mirel Wagner
-------------------------------------------------------------------------------
Fingerpicking pattern

Capo 4th fret
Chord shapes resp. to capo


Intro and Verse:

      Am                                             Dm (just lift 2nd finger)
e|---------------------------------------------------------------------------|
B|----------5-----------------------5------------------------5---------------|
G|-------6------------6---------6------------6-----------6------------6------|
D|---------------------------------------------------0------------0----------|
A|---0------------0---------0------------0-----------------------------------|
E|---------------------------------------------------------------------------|
     Am                     Dm                  Am
e|---------------------------------------------------------------------------|
B|------------5-------------------5--------------------5---------------------|
G|--------6-----------6--------6---------6---------6-------------6-----------|
D|----6-----------6---------0---------0--------6-------------6---------------|
A|---------------------------------------------------------------------------|
E|---------------------------------------------------------------------------|
   Em                   Am
e|---------------------------------------------------------------------------|
B|---------0------------------5----------------------------------------------|
G|------0---------0--------6----------6--------------------------------------|
D|---------------------------------------------------------------------------|
A|----------------------0---------0------------------------------------------|
E|--0---------0--------------------------------------------------------------|


Chorus:

 3x       C                                         G
e|---------------------------------------------------------------------------|
B|---------------5--------------------5-------------------0------------------|
G|-----------0-----------0--------0-----------0--------0-----------0---------|
D|---------------------------------------------------------------------------|
A|---6----7-----------7--------7-----------7--------6-----------6------------|
E|---------------------------------------------------------------------------|

e|---------------------------------------------------------------------------|
B|---------0-----------------------------------------------------------------|
G|------0--------0-----------------------------------------------------------|
D|---------------------------------------------------------------------------|
A|---6--------6--------------------------------------------------------------|
E|---------------------------------------------------------------------------|

3x    Am                 Em
e|---------------------------------------------------------------------------|
B|----------5-------------------0--------------------------------------------|
G|-------6--------6----------0-----------0-----------------------------------|
D|---------------------------------------------------------------------------|
A|----0-------0--------------------------------------------------------------|
E|-----------------------0-----------0---------------------------------------|
2x    Am
e|---------------------------------------------------------------------------|
B|-----------5---------------------------------------------------------------|
G|--------6---------6--------------------------------------------------------|
D|---------------------------------------------------------------------------|
A|---------------------------------------------------------------------------|
E|----0----------0-----------------------------------------------------------|


No Signs Of Age chords – Glen Campbell

 No Signs Of Age
Glen Campbell
written by Jimmy Webb
album version

intro   Dm C Dm C 

Verse 1

 Dm Gm Dm Am D# 
It's a long long time, since I've seen your face.
          Gm Dm Gm Bb F D# F 
I've got crows feet and laugh lines to prove it.
 Bb D# F G# 
You've been a long time away, but here we are,
    C# D# F G# D# F# C# 
almost touching again. How many years has it been?

Chorus 1

 F D# Bb Gm C Am 
But you show no signs of age. No   signs. 
 Bb Gm Bb G# D# 
Since you were 16 and all mine.
 C Gm D# Gm D# F 
The years have been kind, you don't look a day,
     G# C Bb C Bb 
older in mind maybe, still young in your ways. Eyes full of 
 Gm C G# D# Bb F Bb G# 
stars,  passion and rage. Is it a trick of the light, you show
 D# F Gm C 
no signs of age. 

Verse 2

 C Dm C Am D# G# 
Why don't you come on in, you can sit right
 D# Gm Dm Gm F Bb D# Bb Dm 
here and I'll pour you a glass of a good year.   We'll
          Gm D# C F G# C# D# 
toast to renegades and break a glass for the mischief we 
 C F G# D# Bb F# C# G# D# Bb 
made and recall all our mad escapades. 

Chorus 2

     G# D# Bb    
But you show no signs of age. 
    C Am C F# D# Am Bb G# D# G Bb C Gm 
No signs. Still clear like the glass of good wine. The secret of youth, 
    D# F C G# C D# Bb C 
it surely is yours, faith is the truth, your beauty endures 
     Bb Gm F C F G# D# Bb F 
and love never dies. It will not disengage, in my memory 
 Bb G# D# F C 
tonight. You show no signs of age.

In my memory tonight, you show no signs of age.

flyinglibra51
God Bless Glen Travis Campbell

No More Nights chords – Glen Campbell

 No More Nights
Glen Travis Campbell

Intro  B F# B 

Verse 1

 E F# 
The timeless theme

           E B E B 
Earth and heaven will pass away

            F# 
It's not a dream

          E B E B 
God will make all things new that day


Pre-Chorus

 D 
Gone is the curse

 B E B 
From which I stumbled and fell

 D B F# F#7 
Evil is banished to eternal hell


Chorus 1

 B E 

No more night

 F# B         
No more pain

 G#m C#m 
No more tears

 F# F#7 
Never cryin' again

     B E C# F# 
And praises to the great I Am

 F#7 B E 
We will live in the light 
        F# B 
of the risen Lamb


Verse 2

         F# 

See all around

         E B E B 
Now the nations bow down to sing

          F# 
The only sound 
        E B E B      
is the praises to Christ, our King


Pre-Chorus

 G B F# 
Slowly the names from the book are read

 G        
I know the King, 
            B F# F#7 
there's no need to dread


Chorus 2

 B E 

No more night

     F# B       
And no more pain

 G#m C#m 
No more tears

       F# F#7 
Never cryin' again

     B E C#m F# 
And praises to, the great I Am

         B E 
We will live in the light 
        F# B      
of the risen Lamb



Pre-Chorus

          F# 
See over there

           F#7 B E B 
There's a mansion prepared for me

               F# 
Where we will live 
         F#7 B G# 
with my Saviour eternally

Chorus 3

 C# F# 


No more night

     G# C# 
And no more pain

 Bbm D#m   
No more tears

       G# G#7 
Never cryin' again
     C# F# Gb6 G# 
And praises to the great I Am

         C# F# 
We will live in the light
        G# G#7 C# 
of the risen Lamb

                      G# 
We will live in the light 
        G#7 C# G# F# C#   
of the risen Lamb

flyinglibra51
God Bless Glen Travis Campbell

No More Mr Nice Guy chords – Billy Roberts And The Rough Riders

 Billy Roberts and the Rough Riders
No More Mr Nice Guy
Album- The last of the Originals (2014)


Intro

 D G E E 
I've tried to be nice, I've tried to be kind
 E 
Be a gentleman for you
 D 
I've followed you round those summer nights just to 
               E 
make you feel blue
 E 
I gave you my heart , gave you my soul
 E 
gave everything i had
 D 
I kinda wasted my precious days with you
                  E 
Wasted time with you
 D G E 
No More Mr Nice Guy any more
 D E 
No More Mr Nice Guy for you


 E 
My eyes are blind, My Ears are deaf


I hear see no hear evil
 D E 
I don't care what you do, what you say or who you choose to do
 E 
I'm down the road walking avenues


whistling as the girls go by
   D 
I got my sway back now and back in the groove 
                   E  
Just like the old days


 D G E 
No More Mr Nice Guy any more
 D E 
No More Mr Nice Guy for you



Instrumental

 E 
Don't call for me, don't look for me


It's beggars days now miss
 D 
I got a philosophy and an attitude
                     E 
That you ain't seen before


 E 
Your no good girl, no good for me


stay away from me now
 D 
i got my finger burned, once before
                   E 
once bitten twice shy


 D G E 
No More Mr Nice Guy any more
 D E 
No More Mr Nice Guy for you

Outro

Love Me As Though There Were No Tomorrow chords – Glen Campbell

 Love Me As Though There Were No Tomorrow
Glen Campbell

Intro   C 

Chorus 1 

 C Cmaj7 
Love me 
     Am C Dm     
as though there were no tomorrow 
 F G 
take me 
             G7 C Em Am Am7 
out of this world tonight

Verse 1

 Am 
Take me 
          Am7 Em 
make me forget my sorrow
                F 
So when I wake tomorrow 
               C Bb G G7 
I'll know our love was right

Verse 2

 C Cmaj7 
Kiss me 
 Am C Dm 
as though it were now or never 
 F G 
teach me 
              G7 A7 Bm7 Cm7 A A7 
all that our heart should know

Verse 3

      Dm 
Just love me 
    G G7 Bb A 
as though there were no tomorrow
        A7 C Am Dm 
Oh my darling love me 
 G C Dm G 
don't ever let me go

 C Cmaj7 Am C Dm F G G7 A Bm7 G#7 A  

Chorus 2 

        Dm 
Please love me 
    G G7 Bb A 
as though there were no tomorrow
 Am C Am Dm 
Oh my darling love me
        G G# Bb C           
don't ever let me go

flyinglibra51
God Bless Glen Travis Campbell

No Vaccancy chords – Glen Campbell

 No Vacancy
Glen Campbell
with Green River Boys

Intro  G G G7 
All along the road of life I roam,
 C G 
Looking for a place to call my own.
                                      D 
Not a fancy mansion or a bungelo for me.
              G G7 
Everywhere I go I seem to find,
                 C G 
hanging on the door that same ole sign.
                                         D 
My heart  beats slow when I read on the door

Chorus 1

        G 
no vacancy.
                  C G 
No vacancy,  no vacancy.

All along the line it's the same ole sign
               D G C G 
a waiting for me. No vacancy, no vacancy.

My heart beats slower when I read on the door 
     D G 
no vacancy.

riff  G D G C G  ( on dobro)

Verse 2

 G C 
Not so long ago it seems, many a happy
          G 
dream I dreamed. Of a little nest where
                                D 
I could nest and the world was free.
            G G7 
One of the mighty warriors over in one,
              C G 
trouble and trials just begun. Faced that 
                    D G 
terrible enemy no vacancy. 

Chorus 2

No vacancy,
     C G 
no vacancy. All along the line it's the same 
                       D G C G 
ole sign a waiting on me. No vacancy, no vacancy.

My heart beats slower when I read on the sign
     D G 
no vacancy.

riff dobro   G D G 

Verse 3

 G 
Brother if you live a life of ease,
                C G 
better take a moment on your knees.
                                            D 
Thank the Lord above for all He's done for you.
 D7 G G7 C 
Living in a world of grief and hate, hoping ever' 
                 G 
day the hand of fate will remove that sign
                 D G                     
on the door no vacancy. 

Outro
                  C G 
No vacancy, no vacancy.

All along the line it's the same ole sign
              D G C G 
a waiting on me. No vacancy, no vacancy.

Heart beats slower when I read on the door
     D G 
no vacancy.

flyinglibra51
God Bless Glen Travis Campbell

Aint No Cure For Love chords – Jennifer Warnes

 Ain't No Cure For Love
Jennifer Warnes

Intro  Bb 

Verse 1

 Bb 
I've loved you for a long, long time.
   D# 
I know this love is real.
       Bb 
Don't matter how it all went wrong.
            F 
That don't change the way I feel.
   Bb D 
I don't believe time can heal, 
      Gm D# D#7 
this wound I'm speaking of.
     Bb 
Ah, there ain't no cure,
 F 
ain't no cure,
       D# Bb 
there ain't no cure for love.

Verse 2

                    Bb7 
I'm aching for you baby.
   D# 
I can't pretend I'm not.
   Bb 
I love to see you naked,
         F F7 
in your body and your thoughts.
      Bb D 
I've got you like a habit.
     Gm D#      
Ahh I'll never get enough.
     Bb 
Ah, there ain't no cure,
 F 
ain't no cure,
 D# Bb 
ain't no cure for love.
                Gm Bb 
There ain't no cure for love.

Chorus 1

                D# Bb 
There ain't no cure for loveee.
    D# 
No pill no drugs, 
               F 
it's all been cut with stuff.
   Dm D# Bb 
I can't get nothing done, 
               D# Gm 
can't be with anyone.
         C 
I want your brother love,
             C7 
I want that other love,
            Bb F 
bring your cure for loveeee.

Verse 3

   Bb Bb7 
I don't expect the remedy,
      D# 
just because the seas are rough.
          Bb 
And I'll seem to been so careful,
    F F7 
to forget how good it was.
     Bb D 
I'm never, given in.
 Gm D# D#7 
Woah I've never given up baby.

Chorus 2

       Bb F 
There ain't no cure,
     D# Bb 
ohh There ain't no cure for love.
                Gm Bb 
There ain't noooo cure for love.
             D# Bb 
Aiinn'tt no cure for love.
    D# 
No cure no drug, no no no and nothing
      F 
when you're in love.

Outro

   D# Bb D# F Bb 
I can't get nothing done, no no
                 D# Gm 
I can't be with anyone.
 D# Bb F D# Gm 
Oh There ain't, no cure, noooo cure for love.
 Bb                 
Ain't no cure for love baby.  (fade quickly)

flyinglibra51
God Bless Glen Travis Campbell

No Shade In The Shadow Of The Cross Tabs – Sufjan Stevens V3

 ---------------------------------------------------------------------------
           Sufjan Stevens - No Shade in the Shadow of the Cross
---------------------------------------------------------------------------

Based on a live performance

Standard tuning, capo on 4

Picking pattern is quite basic. In order of string thickness (low to high): 1 3 2 4.
There are some variations though, but this is a starting point.

[fade-in intro]
e|----------------------|
B|----------------------|
G|-2------2------2------|
D|-0------2------2------|
A|-0-[x2]-0-[x4]-0-[x4]-|
E|-2------0------3------|
 
'Now that I fell...'
e|-------------------------------------------|
B|-3-------3-------3--------2--------2-------|
G|-2-------2-------2--------2--------2-------|
D|-4--[x4]-4--[x2]-4--[x2]--2--[x4]--2--[x4]-|
A|-0-------2----------------0----------------|
E|-----------------2-----------------3-------|

'My only lover...'
e|-------------------------------------------|
B|-------------------------------------------|
G|-7------7------4------2------2------2------|
D|-5------4------2------0------2------2------|
A|-5-[x4]-0-[x2]-0-[x2]-0-[x2]-0-[x4]-0-[x4]-|
E|-7------5------3------2------0------3------|

Repeat last two bars of chords, then

  'oeeee'
e|-------------------------------------------|
B|-3-----------------------------------------|
G|-2------2------4------0------2------2------|
D|-4-[x2]-4------5------4------2------2------|
A|-2------4-[x2]-5-[x2]-5-[x2]-0-[x4]-0-[x4]-|
E|--------2------3------5------0------3------|

Repeat this thing again (so the two verse bars
two times, then that choir thing)
Then we arrive at the 'there's blood on that 
blade'-part, which just repeat those two bars
of the verse again.

Ai No Corrida chords – Quincy Jones

 Intro :     Em7 Am7 Bm7 Em7     
I hold you, I touch you
    Am7 Bm7 
In a maze can't find my way
    Em7            
I think you, I drink you
    Am7 Bm7 
I'm being served you on a tray
    A/C# D/C G/B Bbdim7 
You see girl, that's what I go through every day
    Am7 B 
Is this the way it should feel

    Em7     
So pinch me, i'm dreamin'
    Am7 Bm7 
But if it is don't let me know
    Em7 
I'm drowning, don't save me
    Am7 Bm7 
This is the way i want to go
    A/C# D/C G/B Bbdim7 Am7 Bm7 
You see girl, you thrill me, half kill me, that's what you do

 Em7 Am7 D/F# 
Ai no corrida, that's where I am
      Bm7 Em7 Am7 
You send me there, your dream is my command
 Em7 Am7 D/F# 
Ai no corrida, i find myself
      Bm7 Em7 Am7 
No other thought, just you and nothing else
 Am7 Bm7 Em7 
You and nothing else

 Em7 Am7 Bm7    2X

    Em7 Am7 Bm7 
Before i first saw you each day was just another day
    Em7 Am7 Bm7 
Night the lonely interlude just came, then blew away
    A/C# D/C G/B Bbdim7 Am7 B 
You know girl, everything was come what may until you fell in my life

    Em7 Am7 Bm7 
This spell that i'm under has caught me in a daze
    Em7 Am7 Bm7 
Your lightning and thunder sets my poor heart ablaze
    A/C# D/C G/B Bbdim7 Am7 Bm7 
You see girl, you thrill me, half kill me that's what you do

 Em7 Am7 D/F# 
Ai no corrida, that's where I am
      Bm7 Em7 Am7 
You send me there, your dream is my command
 Em7 Am7 D/F# 
Ai no corrida, i find myself
      Bm7 Em7 Am7 
No other thought, just you and nothing else
 Am7 Bm7 Em7 
You and nothing else

 Em7 Am7 D/F# 
Ai no corrida, that's where I am
      Bm7 Em7 Am7 
You send me there, your dream is my command
 Em7 Am7 D/F# 
Ai no corrida, i find myself
      Bm7 Em7 Am7 
No other thought, just you and nothing else

 Em7 Am7 D/F# 
Ai no corrida, that's where I am
      Bm7 Em7 Am7 
You send me there, your dream is my command
 Em7 Am7 D/F# 
Ai no corrida, i find myself
      Bm7 Em7 Am7 
No other thought, just you and nothing else
 Am7 Bm7 Em7 
You and nothing else

Break :     Em7 Am7 Bm7        4X
           
            Em7 G Bb A7 Em7 C# Em7 Am7 Bm7        2X

    Em7     
I hold you, I touch you
    Am7 Bm7 
In a maze can't find my way
    Em7            
I think you, I drink you
    Am7 Bm7 
I'm being served you on a tray
    A

No Love Today chords – Chris Smithers

 Capo 2

 C E 
I don't know much, when I knew less, And I was heartbroke for the first time,
       C E 
I was drowning in my tears, I went looking for a lifeline,
 C Am 
Trying to find some comfort, A simple tender touch,
   Bm Am E                    
Searching for some little cure That would not cost too much,
             F Am      
And I could hear that produce wagon on the street,
          F G         
I could hear that farmer singing, As I cried myself to sleep

       C E                      
I got ba-na-na, watermelon, peaches by the pound,
        C E                       
Sweet corn, mirleton, mo' better than in town,
        C Am                     
I got okra, enough to choke ya, Beans of every kind,
     Bm Am E                      
If hungry is what's eatin' you I'll sell you peace of mind,
          F Am         
But this ain't what you came to hear me say,
       F G                
And I hate to disappoint you, But I got no love today,
       C E C E Am         
I got no love today, I got no love today, No love today


 C E                 
I could not love to save myself From lonesome desperation.
          C E 
Everything I thought was love  Was worthless imitation.
 C Am 
My concept of commitment Was to take all you could give,
   Bm Am E 
I thought the cheapest thrills I loved Were teachin' me to live,
             F Am 
But nothin' seemed to last or see me through
                 F G 
Nothin' but that little song  That I still sing for you.


       C E                      
I got ba-na-na, watermelon, peaches by the pound,
        C E                       
Sweet corn, mirleton, mo' better than in town,
        C Am                     
I got okra, enough to choke ya, Beans of every kind,
     Bm Am E                      
If hungry is what's eatin' you I'll sell you peace of mind,
          F Am         
But this ain't what you came to hear me say,
       F G                
And I hate to disappoint you, But I got no love today,
       C E C E Am         
I got no love today, I got no love today, No love today

 C E 
No love today, none tomorrow, Not now, not forever.
           C E 
You can't see what comes for free, I think you much too clever,
 C Am 
For your own good I will tell you What's right before your eyes,
    Bm Am E 
Intelligence is no defense  Against what this implies,
            F Am 
In the end no one will sell you what you need,
             F G 
You can't buy it off the shelf, You got to grow it from the seed, 

       C E                      
I got ba-na-na, watermelon, peaches by the pound,
        C E                       
Sweet corn, mirleton, mo' better than in town,
        C Am                     
I got okra, enough to choke ya, Beans of every kind,
     Bm Am E                      
If hungry is what's eatin' you I'll sell you peace of mind,
          F Am       

No Good intro Tabs – Kaleo

 -------------------------------------------------------------------------------
                               NO GOOD - Kaleo
-------------------------------------------------------------------------------
: phil


Tuning: standard eadgbe

this is basically the riff which is played throughout the song.

chords used are barred E, G and A

Song starts with simple chords:
(listen to the song for the timing, its pretty easy actually)

E G E   E G E    E G E    E E    E G E    E E    E G E

e|-3b4br0---------------------3b4br0---5b6--3---0---0-----3b4br0---------------------| 2x
B|-----------0----------------------------------3------------------0-----------------|
G|-------2-2---2p0---------------------------------------------2-2---2p0-----2-2p0---|
D|-----------------2p0-2-------------------------------------------------2p0-------2-|
A|-----------------------------------------------------------------------------------|
E|-----------------------------------------------------------------------------------|



************************************

| /   slide up
| \   slide down
| h   hammer-on
| p   pull-off
| ~   vibrato
| +   harmonic
| x   Mute note
| b   Bend
| pb  Pre-bend
| br  Bend release
| pbr Pre-bend release
| brb Bend release bend

************************************

Hoshi No Uta chords – Shounen T

 G  -  C  -  G  -  C G C 
toaru wakusei no hougaku kara
   Bm Em Am D 
zujou wo tsuuka suru houki boshi ga
 G C 
itazura suki no kodomo no youni
      Bm Em Am D 
boku no senaka wo sotto nadeta yo


     C G/B 
iki tainda ikenainda
   Am D G 
miteru dakeja tarinai yo
    C G/B 
arasoi ya uso monai rashii
   F D 
kimi ni aitai yo


        Cadd9 G/B Em 
marude houseki no youni utsukushi kute
   Am D G 
kamisama ga uchuu ni okkotoshita
   Cadd9 G/B Em 
bokura ga hoshi katta mono wa
   Am D G 
sono hoshi ni aru yo ne?


 Cadd9  -  G/B  -  Am  -  D  -  G Cadd9  -  G/B  -  Am  -  D G C 
amaneku hoshi boshi no naka de
   Bm Em Am D 
hitoki wa medatte kagayaiteru
 G C 
mou teokure danante koto wa
      Bm Em Am D 
iwa rena kutatte rikai shiteru


     C G/B 
hontou wa shitte ita
   Am D G 
arasoi ya uso ga taenai koto
    C G/B 
shinji tainda shinjirare nainda
   F D B 
isso subete kowashite shimae tara


 Cadd9  -  G/B  -  Em  -  Am  -  D  -  G Cadd9  -  G/B  -  Em  -  Am  -  D Em Dadd9 Cadd9 G 
kureetaa darake no kono chi wa
   Em Dadd9 Cadd9 G 
kimi karadou mieru?


        Cadd9 G/B Em 
mou kitai wa taishite shite naikedo
   Am D G 
kimi gairu soredakede ii
       Cadd9 G/B Em 
hyakunen datte mo kono omoi ga
     Am D       
kawaranai youni
 G 
koe wo ageru riyuu


      Cadd9 G/B Em 
houseki no youni utsukushi kute
     Am D G 
omou hodoi bitsuni mieta
      Cadd9 G/B Em 
hoshi no uta sore wa kimi no uta
    Am D G 
sono sekai ni hibiite nee


 Cadd9  -  G/B  -  Am  -  D  -  G Cadd9  -  G/B  -  Am  -  D

No Peace No End chords – Richard Thompson

 B Bsus4 
Where were you when the walls were crumbling 
 B Bsus4 
Where were you when the guns were rumbling 
 B G 
Where were you when the hounds of hell 
      C G D 
Took sons and lovers away
 B Bsus4 
Did you see me on the slippery slope
 B Bsus4 
Wrong end of a telescope
 B G 
Do you even pause for breath
            C G D 
As you sleepwalk through the day
 A Aaug 
Some day won't you
 A6 Aaug 
Stand in my shoes
            C# D 
And see the world I see
             F#m 
No hope no friend
 D F#m D F#m 
No hope no friend
    A E D F#m F# 
No peace, no end
 B Bsus4 
I'm ground between two stones
 B Bsus4 
Soon I'll be nothing but bones
 B G 
Who'll be my shining savior
 C G D 
Before I turn to dust?
 B Bsus4 
Are you the hand that kills me?
 B Bsus4 
Are you the hand that saves me?
 B G 
When they both sell you down the river
 C G D 
Which one can you trust?
 A Aaug 
Some day won't you
 A6 Aaug 
Stand in my shoes
    C# D 
And see the world I see
 D F#m D F#m 
No hope no friend
 D A E D F#m F# 
No peace, no end
 B Bsus4 
In the peace museum there's a mangy dove
 B Bsus4 
To remind us all of universal love
 B G 
You can rent her out for your corporate dinner
          C G D 
And feel good about yourself
 B Bsus4 
Geneva Convention they use as a pessary
 B Bsus4 
Olive branch is a fashion accessory
 B G 
In the big chess game there's just one winner
            C G D 
And it's always somebody else

 A Aaug 
Some day won't you
 A6 Aaug 
Stand in my shoes
    C# D 
And see the world I see
 D F#m D F#m 
No hope no friend
 D A E D            
No peace, no end
 D F#m D F#m 
No hope no friend
    A E D            
No peace, no end

 F#m B

God Bless The Internet chords – No Frills Twins V2

 > , so please feel free to correct anything.


 C                    
Look at all the smokey eyes
 Em 
Teenagers in disguise
 G 
Look at all the smokey eyes
 Am 
Smokey eyes
 F 
Smokey eyes

 C 
Got no appetite
 Em D 
Posting photos of the sky
 D 
Stay up all night
 Am D 
Blemish fixing my whole life

 C  
Oh oh oh oh oh
 Em 
These are our teenage dreams
 D 
Oh oh oh oh oh
 A G 
We're jaded and we're boring

 C 
God bless the Internet
 Em 
2am, feeling restless
 D 
God bless the Internet
 Am F 
Worth more than Mercedes-Benz

 C 
God bless the Internet
 Em 
Nobody knows that I'm a mess
 D 
God bless the Internet
 Am F 
Stuck on our cyber thrones

       C 
Na na na na
       Em 
Na na na na
       G 
Hey Hey Hey
       D 
Good Bye

 C 
Battery running low
 Em 
Our youth is drying up
 G 
Pillow fights turned cyber fights
 Am F 
Was not the cat that ripped our tights

 C 
Logging on one by one
 Em D 
Don't know nothing 'bout fun in the sun
 D 
Logging on one by one
 Am D 
This is how our lives are run

 C  
Oh oh oh oh oh
 Em 
These are our teenage dreams
 D 
Oh oh oh oh oh
 A F 
We're jaded and we're boring

 C 
God bless the Internet
 Em 
2am, feeling restless
 D 
God bless the Internet
 A F 
Worth more than Mercedes-Benz

 C 
God bless the Internet
 Em 
Nobody knows that I'm a mess
 D 
God bless the Internet
 Am F 
Stuck on our cyber thrones

 C 
Generation Z, sitting in the back seat
 Em 
Boys and girls made out of plastic
 D 
City kids gettin' smoochy
 Dm Em 
Country kids reppin' Gucci

 C 
Look at all the high-rise buildings
 Em 
Out of touch with our own feelings
 D 
Killing time with rum and whiskey
 C Em 
Hair spray, fake tans, getting frisky

 C  
No desire to meet real people
 Am 
We chat once, no need for sequel
 Em 
Quick and easy, cyber mateship
 Dm Em 
No attachments, use it, ditch it

 C 
Put my head down, put my screen up
 Cm 
Make it seem like at night I raise my red cup
 Am 
Don't tell me I'm wasting my youth
 D F 
Got my headphones in to block out the truth

 C 
God bless the Internet
 Em 
2am, feeling restless
 D 
God bless the Internet
 A F 
Worth more than Mercedes-Benz

 C 
God bless the Internet
 Em 
Nobody knows that I'm a mess
 D 
God bless the Internet
 Am F 
Stuck on our cyber thrones

 A F 
We're jaded and we're boring