Tag: none

None Like You chords Vtical Church Band

 INTRO:   B  - - - |  E  - - - |  C#m  - - - |  G#m  -  F#   - |


VERSE 1
               B G#m 
Who wore the heavens as royal robes
                E B 
Fashioned the morning and the heavenly hosts
               F# G#m 
Who gave the word when all things were new
     E B F# 
Oh God it’s You, it’s You


VERSE 2
               B G#m 
Who fixed His heart firm upon man 
                E B 
Knowing the cost before He began
               F# G#m 
Who gave himself when all things were new 
     E B F# 
Oh God it’s You, it’s You


CHORUS
 E B F# G#m 
Holy, Holy Lord Almighty
 E B F# C#m 
God of Glory there is none like You
 E B F# G#m 
Holy, Holy, Lord Almighty
 E B F# 
God of Glory there is none like You


VERSE 3
               B G#m 
Who wore our sorrows as royal robes 
                E B 
And fashioned our victory by dying alone 
               F# G#m 
Who gave himself to make all things new 
     E B F# 
Oh God it’s You, it’s You


BRIDGE
 B/D# E G#m F# 
Je – sus, crucified, raised to life
 B/D# E G#m F#       (Song ends on  E )
Je – sus,  lift Him high, lift Him high (Repeat)

With Hearts Toward None I Tabs – Mgla

 Artist: Mgła

 With Hearts Toward None

Song: With Hearts Toward None I

Tuning: C-standard(C F A# D# G C). Though live they seem to play tuned to D-standard, one step up from this.

All bars are 4/4

Riff 1 Lead(Tremolo-picked the whole way through):
|------------------|------------------|------------------|------------------|
|------------------|------------------|------------------|------------------|
|------------------|-9---5-------7----|------------------|-9---5------------|
|-7-------5---7----|---------3--------|-7-------5---7----|------------------|
|------------------|------------------|------------------|---------3---5----|
|------------------|------------------|------------------|------------------|
  h       q   q      q   q   q   q      h       q   q      q   q   q   q

|------------------|------------------|------------------|------------------|
|------------------|------------------|------------------|------------------|
|------------------|-9---5-------7----|---------5---7----|-2-------5---0----|
|-7-------5---7----|---------3--------|-7----------------|-----3------------|
|------------------|------------------|------------------|------------------|
|------------------|------------------|------------------|------------------|
  h       q   q      q   q   q   q      h       q   q      q   q   q   q

Riff 1 Rhythm(Played regularly the two first times it is played, tremolo-picked after that):
|-----|-----|-----|-----|-----|-----|-----|-----|
|-----|-----|-----|-----|-----|-----|-----|-----|
|-----|-----|-----|-----|-----|-----|-----|-----|
|-----|-----|-----|-----|-----|-----|-----|-----|
|--7--|-(7)-|--8--|-(8)-|--7--|-(7)-|--3--|--3--|
|--5--|-(5)-|--5--|-(5)-|--5--|-(5)-|--5--|--1--|
   w     w     w     w     w     w     w     w

Riff 2 Lead(Tremolo-picked the whole way through): 
|---|-----5-|-(5)-|-(5)-3-|-(3)-|-(3)---|-----|-------|
|-5-|-(5)---|-----|-------|-----|-----6-|-(6)-|-(6)-5-|
|---|-------|-----|-------|-----|-------|-----|-------|
|---|-------|-----|-------|-----|-------|-----|-------|
|---|-------|-----|-------|-----|-------|-----|-------|
|---|-------|-----|-------|-----|-------|-----|-------|
  w    h  h    w     h  h    w     h  h    w     h  h

Riff 2 Rhythm(Palm mute chords):
|------------------|---|---|---|------------------|---|---|---|
|------------------|---|---|---|------------------|---|---|---|
|------------------|---|---|---|------------------|---|---|---|
|-7-7-7---7---r----|-r-|-r-|-r-|-7-7-7---7---r----|-r-|-r-|-r-|
|-7-7-7---7---r----|---|---|---|-7-7-7---7---r----|---|---|---|
|-5-5-5---5---r----|---|---|---|-5-5-5---5---r----|---|---|---|
  e e q   q   q      w   w   w   e e q   q   q      w   w   w

Riff 2 Extra guitar(Really hard to hear, so possibly not 100% correct. Played by the rhythm guitar live): 
|---------|---------|---------|---------|---------|---------|---------|----------|
|---------|---------|---------|---------|---------|---------|---------|----------|
|---------|---------|---------|---------|---------|---------|---------|----------|
|-7---7---|-7---7---|-7---7---|-7---7---|-7---7---|-7---7---|-7---7---|-10--10-9-|
|---7---7-|---7---7-|---7---7-|---7---7-|---7---7-|---7---7-|---7---7-|---7------|
|---------|---------|---------|---------|---------|---------|---------|----------|
  q q q q   q q q q   q q q q   q q q q   q q q q   q q q q   q q q q   q q q  q  

Riff 3 Lead(Tremolo-picked the whole way through):
|-----|-----|-3---|-----|
|-3---|-6-3-|---3-|-----|
|---3-|-----|-----|-3-5-| x 4
|-----|-----|-----|-----|
|-----|-----|-----|-----|
|-----|-----|-----|-----|
  h h   h h   h h   h h

Riff 3 Rhythm:
|-----|-----|-----|-----|-----|-----|-----|-----|-----|-----|-----|-----|-----|-----|-----|-----|
|-----|-----|-----|-----|-----|-----|-----|-----|-----|-----|-----|-----|-----|-----|-----|-----|
|-----|-----|-----|-----|-----|-----|-----|-----|-----|-----|-----|-----|-----|-----|-----|-----|
|--7--|-(7)-|-(7)-|-(7)-|--7--|-(7)-|-(7)-|-(7)-|--3

None But The Rain chords – Townes Van Zandt V2

 An easy version of the song.

Intro:  C Am F C F C G C Am F C 
We had our day but now it's over
 F C F G G7 
we had our song but now it's sung
 C Am F C 
we had our stroll through summers clover
 F C G C 
but summer's gone now, our walkin's done

 C Csus2 Am F G C C Am F C 
So tell me gently who be your lover
 F C F G G7 
who be your lover after I'm gone
 C Am F C 
will it be the moon that hears your sighin'
 F C G C 
will it be the willow that hears your lonesome song

 C Csus2 Am F G C C Am F C 
Will it be the rain that clings to your bosom
 F C F G G7 
will it be the sunshine that dries your golden hair
 C Am F C 
will it be the wind that warns of my returning
 F C G C 
will a rose be in your arms when I find you waitin' there

 C Csus2 Am F G C C Am F C 
None but the rain should cling to my bosom
 F C F G G7  
none but the moon should hear my lonesome sigh
 C Am F C 
none but the wind should warn of your returning
 F C G C 
Fare thee well, my love, good-bye

There Is None Like You chords – Praise And Worship

 Em C G D7sus D G D C G 
 There is none like You
 C G Am7 Dsus D 
 No one else can touch my heart like You do
 G D G C 
I could search for all eternity long and find
 G D G 
There is none like You
(repeat at your own choice)

      Cmaj7 C G Em7 
Your mercy flows like a river wide
     Am7 D G 
And healing comes from Your hands
 Cmaj7 C G Em7 
Suffering children are safe in Your arms
 Am7 C D 
  There is none like You

None But Jesus chords – Praise And Worship

 Verse 1:
 B 
In the quiet
 E 
In the stillness
      C#m7 F# 
I know that You are God
 B E 
In the secret of Your presence
      C#m7 F# 
I know there I am restored
 C#m D#m/C# B E B/D# F# 
When You   call I won’t  re - fuse
 C#m D#m/C# B E B/D# F# 
Each new   day again  I’ll choose


Chorus:
 G#m E B F# 
There is no one else for me
    C#m7 G#m 
None but Jesus
              E B F# 
Crucified to set me free
          C#m 
Now I live to bring Him praise
 G#m E B F# 
There is no one else for me
    C#m7 G#m 
None but Jesus
              E B F# 
Crucified to set me free
          C#m G#m 
Now I live to bring Him praise


Other:
 E F# B G#m E F# B 


Verse 2:
 B 
In the chaos
 E 
in confusion
      C#m7 F# 
I know You’re sovereign still
 B E 
In the moment of my weakness
       C#m7 F# 
You give me grace to do Your will
 C#m D#m/C# B E B/D# F# 
When You   call I won’t  delay
 C#m D#m/C# B E B/D# F# 
This my    song through all  my days


Other 2:
 E F# B G#m E F# B 


Bridge:
 G#m E B F# 
All my delight is in You Lord
               C#m7 
All of my hope
                   G#m 
All of my strength
               E B F# 
All my delight is in You Lord
             C#m7 
Forever more