Tag: nothing

Get Better chords by Nothing but Thieves

[Intro]
E Bm A


[Verse 1]
  E                   Bm
I know you think I'm kinda strange
A                Bm
Sitting in this microwave
  E           Bm
A party trick no one sees
 A                   Bm
Victim of a thought disease
A
Give me just a minute
A
Give me just a minute


[Pre-Chorus]
E                  Bm
Baby please, don't hang around
A               Bm
I don't mean to bring you down
A
Give me just a minute
A
Found my limit now


[Chorus]
               E       Bm      A
Am I gonna get better, better?
               E       Bm      A
Am I gonna get better, better?
             E     D    A      C           E   D
Because this feels like this might last forever
A      C         E     Bm  A
Will I ever get better?


[Verse 2]
E             Bm
War is raging in my head
A                     Bm
Don't know which side wants me dead
E            Bm
Even if I've lost the fight
     A                Bm
You should'a seen the other guy
A
Give me just a minute
A
Found my limit now


[Chorus]
               E       Bm      A
Am I gonna get better, better?
               E       Bm      A
Am I gonna get better, better?
             E     D    A      C           E   D
Because this feels like this might last forever


[Breakdown]
       C
Will I ever get out of this thing?
A                    C
A serious lack of oxygen
C
My poor brain
A
Eating me from the inside
C
All out of love
C                      A
Masks will fall from above
A        C
Please attach your own
C                   A
Before dealing with others


[Chorus]
               E       Bm      A
Am I gonna get better, better?
               E       Bm      A
Am I gonna get better, better?
             E     D    A      C           E   D
Because this feels like this might last forever
A      C         E     Bm  A
Will I ever get better?


[Outro]
E Bm A
E

Theres Nothing Holdin Me Back Chords by Shawn Mendes

Whole Song 123 bpm
There's Nothing Holdin' Me Back
Shawn Mendes

Standard tuning. Corrections welcome!

  G   Bm  A   D
e|3---7---5--------10---|
B|3---7---5---7----10---|
G|4---7---6---7-or-11---|
D|5---9---7---7----12---|
A|5---9---7---5----12---|
E|3---7---5--------10---|


[Intro]

  G              Bm            A         
e|-----------------------------------------------------------|
B|5h7-5--5h7--5--7h8--7-7h8-7--5h7-5--5h7--5--5h7-5--5h7--5--|
G|-------------------------9---------------------------------|
D|-----------------------------------------------------------|
A|-----------------------------------------------------------|
E|-----------------------------------------------------------|

[Verse 1]
G                  D         Bm   D
I wanna follow her where she goes
A                 D       A       D
I think about her and she knows it
G              D    Bm     D
I wanna let it take control
A                     D        A
'Cause everytime that she gets closer


[Pre-Chorus]
G            D   Bm            D  A       D
She pulls me in enough to keep me guessing
G           D      Bm       D     A         D
And maybe I should stop and start confessing
A
Confessing


[Chorus]
G                    D
Oh, I've been shaking
Bm                          D
I love you when you go crazy
A                          D
You take all my inhibitions
A                                    D
Baby, there's nothing holding me back
G            D          Bm                   D
You take me places that tear up my reputation
A                      D
Manipulate my decisions
A                    D                G D Bm D A D
Baby, there's nothing holding me back
A                       D        G D Bm D A D 
There's nothing holding me back  
N.C.
There's nothing holding me back


[Verse 2]
                     D     Bm    D
She says that she is never afraid
A            D         A    D
Just picture everybody naked
G                  D       Bm  D
She really doesn't like to wait
A           D   A         D
Not really into hesitation


[Pre-Chorus]
G            D   Bm            D  A       D
She pulls me in enough to keep me guessing
G           D      Bm       D     A         D
And maybe I should stop and start confessing
A
Confessing


[Chorus]
G                    D
Oh, I've been shaking
   Bm                       D
I love you when you go crazy
     A                     D
You take all my inhibitions
A                             D
Baby, there's nothing holding me back
G            D          Bm                   D
You take me places that tear up my reputation
A                      D
Manipulate my decisions
A                             D       G D Bm D A D
Baby, there's nothing holding me back
A                       D       G D Bm D A D 
There's nothing holding me back  


[Bridge]
             G                  D  Bm 
'Cause if we lost our minds and we took it way too far
D           A           D      A                  D
I know we'd be alright, I know we would be alright
                  G          D      Bm                  D
'Cause if you are by my side and we stumbled in the dark
            A     D              A           D
I know we'd be alright, I know we'd be alright
             G                  D  Bm
'Cause if we lost our minds and we took it way too far
D           A           D      A
I know we'd be alright, I know we'd be alright
                  G          D      Bm                  D
'Cause if you are by my side and we stumbled in the dark
            A     D              A            D
I know we'd be alright, I know we'd be alright


[Chorus]
G                    D
Oh, I've been shaking
Bm                          D
I love you when you go crazy
A                          D
You take all my inhibitions
A                                    D
Baby, there's nothing holding me back
G            D          Bm                   D
You take me places that tear up my reputation
A                      D
Manipulate my decisions
A                    D                G D Bm D A D
Baby, there's nothing holding me back
A                                G D Bm D A D 
There's nothing holding me back  
N.C.
There's nothing holding me back

All Or Nothing chords – Juliet Simms

 F C G 
Oooh Ooh oh oooh ooh oh ooh ooh oh oh
 F C G 
Oooh Ooh oh oooh ooh oh ooh ooh oh oh

 A G C F 
It's all or nothing

 A G C F 
It's all or nothing

 A 
I've fallen down
This world a million times

 G A 
I've got the battle scars
 C 
I've earned my stripes

 A G 
I'd rather be right and go down with a fight
 F 
Than be wrong and on top of the game
 A G 
Face every demon I can
And I will baby
 D C 
'Stead of running away


 A 
I've been through the lion's den
 G D 
Not going back again
 A G A 
Oh oh, it's all or nothing
 A 
Give me hell or take my soul
 G D 
Not afraid to break my bones
 A G F 
Oh oh, it's all or nothing

 A G C F 
It's all or nothing

 A G C F 
It's all or nothing



 A 
I gave up everything
To chase the sun

 G A 
You might think I lost it
 C 
But I'm far from done



 A G 
I'd rather go on in the way I was born
 F 
Than to say what you want me to say
 A G 
There's no in between
Only get what you see
 D C 
And then here's
To everyone straight




 A 
I've been through the lion's den
 G D 
Not going back again
 A G A 
Oh oh, it's all or nothing
 A 
Give me hell or take my soul
 G D 
Not afraid to break my bones
 A G F 
Oh oh, it's all or nothing

 D G# 
You told me that you don't believe me
But I'll blow you all away

 A G D F D G# 
There's more to me than what you think
                            A G F 
Get over it, I'm here to stay


 A 
I've been through the lion's den
 G D 
Not going back again

 A G A 
Oh oh, it's all or nothing

 A 
Give me hell or take my soul
 G D 
Not afraid to break my bones
 A G F 
Oh oh, it's all or nothing

 A G C F 
It's all or nothing

 A G C F 
It's all or nothing

Nothing But Time chords – Jackson Browne

 Nothing But Time
Jackson Browne
(from Running On Empty recorded on the bus)

 D7 
  Rolling down two ninety five out of Portland, Maine
 A7 D7 
  Still high from the people up there and feeling no pain
 F7 G7 A7 
Gonna make it to New Jersey, gonna set it up and do it again

 D7 
 I got a bottle of wine (pass it over)
 D7 
 I got a broken white line (I'm still sober)
 D7 
 There ain't nothin' but time between this Silver Eagle
 D 
 And that New Jersey line

 D7 A7 D7 
 Well it's a rock and roll band or a movie you can take your pick
 A7 D7 
 And it ain't bad work if you can get it -- But you gotta make it stick              
 F7 G7 A7 
 But getting any kind of sleep on this rolling caravan, that's the trick

 D7 
 It's just a bottle of wine (pass it over)
 D7 
 It's just a broken white line (I'm still sober)
 D7 
 There ain't nothin' but time between this Silver Eagle
 D 
 And that New Jersey line 

 D7 
 It's just a bottle of wine (pass it over)
 D7 
 It's just a broken white line (I'm still sober)
 D7 F7 
 It's just a whole lot of time in the twilight zone
 D A7 
 Between me and these friends of mine

 D7 A7 D7 F7 G7 A7

Everything And Nothing Less Live chords – Chris Mcclarney

 Title: Everything and nothing less
Key: A

Intro
 F#m A2 E Bm7 F#m A2 Bm7 


Verse 1
 F#m A2 E Bm7 
Humbly I stand, an offering
 F#m A2 E 
With open hands, Lord I bring everything


Pre Chorus
                        D 
Everything and nothing less
    F#m E 
My best, my all
                      D 
You deserve my every breath
    F#m E 
My life, my song

Chorus
 A2 F#m E4 
I surrender, I surrender all
     A2 F#m E4 
Oh, I surrender, I surrender all


Instrumental   F#m A2 E Bm7 


Verse 2
 F#m A2 E Bm7 
Lord take control, I trust You
 F#m A2 E Bm7 
I'm letting go to give You 

Pre chorus....

Chorus X2....


Bridge
 D E 
Everything and nothing less, I give You
 F#m A/C# 
Everything and nothing less, forever
 D 
Everything and nothing less 
 E F#m 
Oh, my life is Yours
            A/E 
Completely Yours 
 D E 
Everything and nothing less, I give You
 F#m A/C# 
Everything and nothing less, forever
 D 
Everything and nothing less 
 E F#m 
Oh, my life is Yours
            A/E 
Completely Yours 

Chorus.....

Pre Chorus......

Chorus X2.......

Cant Tell Me Nothing chords – Kanye West V2

 ----------------------------------------------
       Kayne West - Can't Tell Me Nothing
----------------------------------------------
: Jesper Wrang
Email: JesperWrang96

 ever made, pretty simple song to play. Works well for a solo performance with a acoustic guitar.
Would love some feedback! <3 Enjoy :D


Capo 3rd Fret - Standard  E tuning

Chords:
       Am   x02210
       C    x32010
       Dm   xx0231
       C/B  x20010
       Fmaj7  x3321x
 
Chord structre of the hole song:
       Am  -  C  -  Dm  -  Dm  -  C  -  C/B     x3
       Fmaj  -  C  -  Dm  -  Dm  -  C  -  C/B 

The last 3 chords, Dm C C/B are played quickly after each other


[Intro, nothing played here]:
La, la, la la (Yeah)
Wait 'til I get my money right

[Verse 1]
 Am C Dm    
   I had a dream I could buy my way to heaven
                 Dm C C/B        
When I awoke, I spent that on a necklace
 Am C Dm 
   I told God I'd be back in a second
             Dm C C/B 
Man it's so hard not to act reckless
 Fmaj7 C Dm     
      To whom much is given, much is tested
              Dm C C/B 
Get arrested guess until he get the message
 Am C Dm 
   I feel the pressure, under more scrutiny
                Dm C C/B 
And what I do, act more stupidly
 Am C Dm 
    Bought more jewelry, more Louis V
          Dm C C/B 
My Momma couldn't get through to me
 Am C Dm 
   The drama, people suing me
                   Dm C C/B 
I'm on TV talking like it's just you and me
 Fmaj7 C                      
I'm just saying how I feel man
 Dm Dm C C/B 
I ain't one of the Cosby's, I ain't go to Hillman
 Am C Dm 
   I guess the money should've changed him
                     Dm C C/B 
I guess I should've forgot where I came from


[Hook]
 Am C          
La, la, la la
 Dm Dm C C/B 
Wait 'til I get my money right
 Am C 
La, la, la la
 Dm Dm C C/B 
Then you can't tell me nothing, right?
 Fmaj7 C 
Excuse me, was you saying something?
 Dm Dm C C/B 
   Uh uh, you can't tell me nothing
 Am C 
   You can't tell me nothing
 Dm Dm C C/B 
   Uh uh, you can't tell me nothing


[Verse 2]
 Am C              
   Let up the suicide doors
 Dm Dm C C/B 
This is my life homie, you decide yours
 Am C Dm   
   I know that Jesus died for us
                        Dm C C/B 
But I couldn't tell ya who decide wars
      Fmaj7 C Dm 
So I parallel double parked that motherfucker sideways
                   Dm C C/B 
Old folks talking bout back in my day
 Am C                     
   But homie this is my day 
 Dm Dm C C/B 
Class st

Nothing To Say chords – Lars Bygdén

 Capo 2

 C 
I've seen it coming so long 
                        Am 
And now where finally there 
Between the heartaches and pain 
                          F 
Somewhere I stopped to care 
                           G 
And now you ask me what's wrong 
                           C 
And I’ve got nothing to say 


 C 
I have been reaching for you 
                           Am 
But you've been shutting me out 
So I grew hurtful and cold 
                          F 
Kept all my feelings inside 
                           G 
You didn't ask me what's wrong 
                           C 
Your eyes just stared into space 


 F G 
I can't hear a single word you're saying 
     C C7 
Just what's in between 
 F 
You know what I mean 
         Am G 
As you speak everything that I feared sounding loud and clear 
                              C                        
How could we let it come to this 


 C 
I tried explaining to you 
                        Am 
I tried to meet your demands 
But I just could't get through 
                         F 
I let you slip through my hands
                       G  
Now I'm all out of words
                       C  
And I've got nothing to say 


 C 
I wanted you nothing more 
                          Am 
But you drifted off by yourself 
Now you're on some distant shore
                         F 
You say you don't need my help
                       G  
And I don't know what to do
                       C  
An ocean lies in our way 


 F G 
I can't hear a single word you're saying 
     C C7 
Just what's in between 
 F 
You know what I mean 
         Am G 
As you speak everything that I feared sounding loud and clear 
                              C                        
How could we let it come to this 

Nothing Ive Ever Known Tabs – Bryan Adams V3

 E||-----------------2--4--|--5--------------5----|--4--------------4----|--2--------------0-----|
B||-----------------------|------------2---------|------------2---------|------------2------3---|
G||-----------------------|-------2--------------|-------2--------------|-------2---------------|
D||-----------------------|----------------------|--2-------------------|--0--------------------|
A||-----------------------|----------------------|----------------------|-----------------------|
E||-----------------------|--2-------------------|----------------------|-----------------------|


  A                          Bm                     Bm/A                  E
--0-----------------------|----------------------|---------------------|----------------------|
--------------------0--2--|--3--------------3----|--3------------------|--0-------------------|
------------2----2--------|------------4---------|------------4--------|-----------------1----|
-------2------------------|-------4--------------|-------4-------------|------------2---------|
--0-----------------------|--2-------------------|--0------------------|-------2--------------|
--------------------------|----------------------|---------------------|--0-------------------|


  E                                       A                      Bm
-------------------|-------------------|----------------------|----------------------|
-------------------|-------------------|--2--------------2----|--3--------------3----|
--1----------------|-------------------|------------2---------|------------4---------|
-------------------|-------------------|-------2--------------|-------4--------------|
-------------------|-------------------|--0-------------------|--2-------------------|
--0----------------|-------------------|----------------------|----------------------|


  A                      A                        Bm                     Bm/A
--0-------------------|------------------------|----------------------|---------------------|
-----------------2----|------------------0--2--|--3--------------3----|--3------------------|
------------2---------|--2------------2--------|------------4---------|------------4--------|
-------2--------------|------------------------|-------4--------------|-------4-------------|
--0-------------------|--0---------------------|--2-------------------|--0------------------|
----------------------|------------------------|----------------------|---------------------|


  E                      E                   D                      E
----------------------|-------------------|----------------------|----------------------0-----|
--0-------------------|-------------------|----------------0-----|--0----------------0-----3--|
-----------------1----|--1----------------|--2----------2--------|----------------------------|
------------2---------|-------------------|-------0--------------|------------2---------------|
-------2--------------|-------------------|--0-------------------|-------2--------------------|
--0-------------------|--0----------------|----------------------|--0-------------------------|


  C#m                    A                          Bm                        Bm
----------------------|--------------------------|-------------------------|---------------------|
--5--------------5----|--------------------0--2--|--3--------------3p0-----|--3--------------5p3-|
------------6---------|--2---------2----2--------|------------4------------|------------4--------|
-------6--------------|-------2------------------|-------4-----------------|-------4-------------|
--4-------------------|--0-----------------------|--2----------------------|--2------------------|
----------------------|--------------------------|-------------------------|---------------------|


  A                                                                 E
--0-------------------|-------------------|----------------------|------------------0-----|
-----------------2----|--

It All Means Nothing Tabs by Screaming Females

 Screaming Females
"It All Means Nothing"
Standard tuning
Intro/Chorus:
e[---5-5-7-7-7---------------------5-5-7-7---------------|
b[---5-5-9-9-7---------------------5-5-9-9---------------|
g[---6-6-9-9-8---------------------6-6-9-9-9/-11/-14-14--|
d[---7-7-9-9-9-9/11-11-11b-11p9----7-7-9-9---------------|
a[---7-7-7-7-9------------------12-7-7-7-7-7/-9/--12-12--|
e[---5-5-7-7-7---------------------5-5-7-7---------------| x2
A A E E B A A E E
Verse:
"You take what's mine and face me like you're blind..."
e[----------------------------------------------------------------|
b[----------------------------------------------------------------|
g[---16-13-14-14--16-13h14p13-11-9-16-13-14-14--16-13h14p13-11-9--|
d[---14-14-14-14--14-14-14-14-9--7-14-14-14-14--14-14-14-14-9--7--|
a[----------------------------------------------------------------|
e[----------------------------------------------------------------| x1
Intro/Chorus x 2
"I'm on a mission to smash the mirror..."
Verse x 1
"I want to buy everything that you sell..."
Dissonant solo - play whatever you want.
Solo:
Under the solo (A/E/B/F# A/E/B/B)
e]----------------------------------------------------------|
b]---/15h17p15-14h15p14----14-------------------------------|
g]----------------------16----16p14h16-------14----14-16-14-|
d]-------------------------------------14h16----16----------|
a]----------------------------------------------------------|
e]----------------------------------------------------------|


e]-----------------------------------------------------|
b]-----------------------------------------------------|
g]-\12-11h12p11----11----------------------------------|
d]--------------14----14-12-14-12h14p12----------------|
a]--------------------------------------14-12-14b-12~~-|
e]-----------------------------------------------------|

e]------------------------------------------------------------------17-|
b]------------------------------------------------15p14----14-15-17----|
g]---16b-14-------12--------------14-16p14--14h16-------16-------------|
d]----------12-14----16b-14-14h16---------16---------------------------|
a]---------------------------------------------------------------------|
e]---------------------------------------------------------------------|

Bridge:
"You keep me cruel and blind..."
e]---10-10-10-9-9-9-9-7------------------------|
b]---7--7--7--7-7-7-7-7-10-10-10-7-7-7-7-7-----|
g]----------------------7--7--7--7-7-7-7-7-----|
d]---------------------------------------------|
a]---------------------------------------------|
e]---------------------------------------- x 6-|

Bridge continued....
e]---5-5--5-5-5-5--------------------5-5--5-5---------------|
b]---5-5--5-5-5-5--------------------5-5--5-5---------------|
g]---6-6--6-6-6-6--12-12-12-12-11-11-6-6--6-6--12-11--14-14-|
d]---7-7--7-7-7-7--------------------7-7--7-7---------------|
a]---7-7--7-7-7-7--10-10-10-10-9--9--7-7--7-7--10-9---12-12-|
e]---5-5--5-5-5-5--------------------5-5--5-5---------------|

e]-5-5--5-5-5-5--------------------5-5--5-5---------------|
b]-5-5--5-5-5-5--------------------5-5--5-5---------------|
g]-6-6--6-6-6-6--12-12-12-12-11-11-6-6--6-6--12-11--14-14-|
d]-7-7--7-7-7-7--------------------7-7--7-7---------------|
a]-7-7--7-7-7-7--10-10-10-10-9--9--7-7--7-7--10-9---12-12-|
e]-5-5--5-5-5-5--------------------5-5--5-5---------------|

e]-----------|
b]-----------|
g]---9---12--|
d]---9---12--|
a]---7---10--|
e]-----------|
     E   G

Verse x1
"You take what's mine and face me like you're blind..."
Outro:
e[-----------------------------------------------------------|
b[------------------------------------------------10---------|
g[-----------9----9-11-9-6-4----------9---9h11-------9-11b-9-|
d[---9h11------11-------------9h11------11-----0-------------|
a[--------0-----------0-0-0-0------0-------------------------|
e[----------------------------------------------------

Nothing Else To Do chords – Admiral Freebee

 Admiral Freebee - Nothing Else To Do

tuning: standard
chords used:  C ,  G ,  Am ,  Bm ,  D ,  Em 

Chorus:
                          C G 
And I fell in love with you
                                 C G 
Cause there was nothing else to do
                          C G     
And I fell in love with you
                                 Am 
Cause there was nothing else to do
      Bm D 
And I knew it wouldn't make me blue

interlude:
 C G C G  

Verse:
        C G 
It all started when your chaperone said
        C G 
I was dancing too close to your head
              D Em              
And then the bouncer guy told me it was time for me to leave
       D Em 
Luckily I had some old tricks to pull up from my sleeve


pre-chorus:
       C Bm 
So we kissed in your car
        Am D 
And we drank from your purse
        C Bm 
What a great night in a small town
 Am Bm 
That is really cursed


Chorus:
                          C G 
And I fell in love with you
                                 C G 
Cause there was nothing else to do
                          C G     
And I fell in love with you
                                 Am 
Cause there was nothing else to do
      Bm D 
And I knew it wouldn't make me blue


verse:
               C G 
And then the case with Deborah
     C G 
Who jumped out of the birthday cake too soon
Oh the despair
 D Em 
  And I'm not afraid of losing you
 D Em 
  Cause I lost myself that year


pre-chorus:
             C Bm 
And then we kissed on the bus
        Am D 
Drove around in your daddy's hearse
        C Bm 
What a great night in a small town
 Am D 
That is really cursed


Chorus:
                          C G 
And I fell in love with you
                                 C G 
Cause there was nothing else to do
                          C G     
And I fell in love with you
                                 Am 
Cause there was nothing else to do
      Bm D 
And I knew it wouldn't make me blue


outro: 
(excactly the same progression as the chorus only with:)
shalalalalalala     -- fade out --

Enjoy!!

Nothing Left To Lose chords – Heavens Basement

 Got tired of seeing the wrong chords posted for this song. My timing may be off 
here and there but it should be easy to 

figure out. The riff sounds good on the acoustic but I haven't tried it with 
distortion yet. All chords are relative to Eb 

tuning. Enjoy!!!

Chords: |---x----3----x----x-----2-----2-----2--|
        |---2----3----x----1-----3-----3-----3--|
        |---4----0----2----3-----2-----2-----2--|
        |---4----0----2----3-----0-----4-----x--|
        |---2----2----0----1-----------------4--|
        |---x----3----x----x--------------------|
             B G A A# D D/F# D/C# 





(--Starts of with a pick slide and then goes into this--)
 B                                       |\
 G - A - B                                   | \
 A - A# - B                                  |  >x2
        (Ab|-------3h5--------5h7-----)| /
 G - A -riff(Eb|-3-3-3------5-5-5---------)|/       

Oh
Yeah
 B G A 
Cover your eyes you're not ready to see this
 B A A# 
Better to be blind than to try and resist
 B G A 
Say your prayers and cease and desist
 G A 
We all have secrets

Everyone dies so what's the meaning in all this
But we have a choice to live on to exist
If you want more, go take it and get pissed
We don't have regrets


       Ab|-1/15-|
Slide  Eb|-1/15-|



               D B 
I know how it feels, to have nothing left to lose
    G B A 
To burn it all, and be left alone with silence
        D B 
How it feels, with the anger and the rage (and the rage)
 G B A 
Get out, get out, get out, we are defiance



Pushed to the edge I can't go any further
Tear me apart with mechanical murder
Ignorant bliss in a time of disorder
God save the bastards

Nightmares come when I can't open my eyes
Running from the past I know that I can't hide
I get knocked down shout up to the sky
  G      A      (--then right into the chorus)
I got no regrets



               D B 
I know how it feels, to have nothing left to lose
    G B A 
To burn it all, and be left alone with silence
        D B 
How it feels, with the anger and the rage (and the rage)
 G B A 
Get out, get out, get out, we are defiance



Interlude:  B - G - D - D/F# - D/C# B G 
We don't belong here
 D D/F# D/C# 
The sound of a thousand vultures
 B G D D/F# D/C# 
Will drown us out and confiscate our bones
 B                
We stand alone

 B G 
We don't belong here
 D D/F# D/C# 
The sound of a thousand vultures
 B G D D/F# D/C# 
Will drown us out and confiscate our bones

 B                
We stand alone
 B G D D/F# D/C# B                 
We stand alone 

 G D D/F# D/C# 
We stand alone
 G D D/F# D/C# 
We stand alone

(---------------Don't Play--------------------------)
I know how it feels, to have nothing left to lose
  (Play)--> <sp

How Nothing Feels Tabs by Promise Ring

 -----------------------------------------------------------------------------
                             HOW NOTHING FEELS - The Promise Ring
-----------------------------------------------------------------------------
So this is pretty basic, its just a simple melody over the same chords of Nothing Feels 
Good. The melody is on a piano (and I think the right hand plays the chords softly as 
well) and the chords are played on an acoustic.

Tuning: Standard
                                      x2
e|-7-8-|-------------12-10----------7-8-|-------------8--7------------14--|
B|-----|-10-----------------------------|-10------------------------------|
G|-----|--------------------------------|---------------------------------|
D|-----|--------------------------------|---------------------------------|
A|-----|--------------------------------|---------------------------------|
E|-----|--------------------------------|---------------------------------|
 |                                                                        |
e|-----|--------------------------------|---------------------------------|
B|-----|--------------------------------|---------------------------------|
G|-4-4-|-2---2---2---2-2-4---4---4---4-4|-2---2---2---2-2-4---4---4---4-4-|
D|-5-5-|-3---3---3---3-3-5---5---5---5-5|-3---3---3---3-3-5---5---5---5-5-|
A|-5-5-|-3---3---3---3-3-5---5---5---5-5|-3---3---3---3-3-5---5---5---5-5-|
E|-3-3-|-1---1---1---1-1-3---3---3---3-3|-1---1---1---1-1-3---3---3---3-3-|


e|-15-----------------------------|-----(7)(8)---8--7-----------7-8-|
B|--------------------------------|-10------------------------------|
G|--------------------------------|---------------------------------|Fade...
D|--------------------------------|---------------------------------|
A|--------------------------------|---------------------------------|
E|--------------------------------|---------------------------------|
 |                                    *(ghost notes, not harmonics) |
 |                                                                  |
e|--------------------------------|---------------------------------|
B|--------------------------------|---------------------------------|
G|-2---2---2---2-2-4---4---4---4-4|-2---2---2---2-2-4---4---4---4-4-|
D|-3---3---3---3-3-5---5---5---5-5|-3---3---3---3-3-5---5---5---5-5-|
A|-3---3---3---3-3-5---5---5---5-5|-3---3---3---3-3-5---5---5---5-5-|
E|-1---1---1---1-1-3---3---3---3-3|-1---1---1---1-1-3---3---3---3-3-|

Nothing Can Change This Love chords – Sam Cooke V2

 A C#7 
If I go a million miles away
 D B7 
I'd write a letter, each and every day
               A F#7 
'Cause honey, nothing,
 F#7 B7 E7 A D 
Nothing can ever change this love I have for you


 A C#7 
Make me weep and you can make me cry
 D B7 
See me comin' and you can pass me by
            A 
But honey, nothing
 F#7 B7 E7 A D        
Nothing can ever change this love I have for you


 A D E7 A F#m 
you're the apple of my eye, you're cherry pie
      E7 A 
and oh yeah, you're cake and ice cream
 C#7 A F#m 
You're sugar and spice and everything nice
 B7 E7 D C# Bm7 
You re the girl of my my my my dreams


 A C#7 
But if you wanted to leave me and roam
 D B7 
When you get back, I'd just say "Welcome Home"
              A F#7 
'cause honey nothing, nothing
     B7 E7 A D A 
can ever change this love I have for you 

Nothing Shows chords – Keegan Dewitt

  Sam de Brunner
Tuning: Standard
No Capo

 G G 
When nothing would show
 G C 
and sadness remained
 G Em G C 
I stood in the snow and watched how everything
 Em 
connects to one another
 C 
Everything
 G 
Shows


 G Em C G 
And what do we know
 G C 
about what we've earned
 G Em G C 
Will all the love we've spent return to us
            Em 
Or will we sour one another
 C     
in a rush
         G 
to feel right


 G Em C G 
I felt so alone
 G C 
out lost in the rain
 G Em G C 
I came to your door so I could say
           Em 
all these sentimental feelings
 C 
Everything
       G 
feels right


 G Em C G 
And there in the night
 G C 
we said we would change
 G Em G C  
We wouldn't rely on all that pain
      Em C G 
that came before


 G 
I felt so unsure
 G C 
then I saw you
 G Em G C 
And I felt something bold and true
          Em    
We won't hide from one another
 C 
Now I know
        G 
we are right
        C 
we are right
        Em 
we are right
        C 
we are right


 C G 

                                                    __
 C G                              |
Take it or leave it our hearts should be enough now   |
 Em G                              |--> Repeat 
Take it or leave it our hearts should be enough now   |
                                                    __|


 G Em C   (Repeat and fade)

Friends Lovers Or Nothing intro Tabs by John Mayer V4

 The guy who did the chords did a pretty good job, but there was no intro.


E|------------------------------------------------------------------------------------------|
B|-------------10--12b10-------------12b10-----------------12b12--10---------10/12--10--10--|
G|----------9-------------9-----------------11---------11-------------11--9-----------------|
D|------11-------------------11--13-------------9--12---------------------------------------|
A|--12--------------------------------------------------------------------------------------|
E|------------------------------------------------------------------------------------------|

Nothing chords – Ron Pope V2

 Nothing By Ron Pope feat. Alexz Johnson
 Calling Off The Dogs
Track 7
2014


Standard Tuning
Capo on the 1st fret


Chords:

 G :      320003 or 320033
 D :      xx0232
 Am :     x02210
 C :      x32010
 Em :     x22000


 Intro:     G D Am C G D Am 
 You said "Don't wait up"
                      C 
 But I can't help myself
 G D Am 
 You swear "Just friends"
                        C 
 But I know better than that

                    G 
 So baby when you leave this place
                 D 
 I don't wanna hear your name
                    Am 
 Promise when you walk away
                       C 
 You're never coming back again


               G 
 You left me nothing nothing nothing
   D Am C 
 Nothing nothing nothing at all
               G 
 You left me nothing nothing nothing
   D Am C 
 Nothing nothing nothing at all


 G D Am 
 Your heart, too cold
                     C 
 So you don't ever feel
 G D Am 
 My words on deaf ears
                     C 
 No you will never hear

                    G 
 So baby when you leave this place
                 D 
 I don't wanna hear your name
                    Am 
 Promise when you walk away
                       C 
 You're never coming back again


               G 
 You left me nothing nothing nothing
   D Am C 
 Nothing nothing nothing at all
               G 
 You left me nothing nothing nothing
   D Am C 
 Nothing nothing nothing at all


         Em 
 Don't hold me too tightly 
          D G C 
 'Cause I'll be reminded of why I wanted you here
           Em 
 And the last thing I need 
          D G 
 Is for you to believe that there's anything left 
             C D 
 That can change how I feel


 G D Am C 
 I wish there was any other way
 G D Am C 
 I'm sure there’s no chance you'll ever change


               G 
 You left me nothing nothing nothing
   D Am C 
 Nothing nothing nothing at all
               G 
 You left me nothing nothing nothing
   D Am C 
 Nothing nothing nothing at all
               G 
 You left me nothing nothing nothing
   D 
 Nothing nothing nothing
  Am 
 Nothing nothing nothing
   C 
 Nothing nothing nothing
               G 
 You left me nothing nothing nothing
   D Am C 
 Nothing nothing nothing at all


  G D Am C G

Without You Im Nothing chords – Placebo

 Bbm7/F : 113121

Intro (listen to the song for pattern):  Bbm  -  Ab  -  F#  -  Ab  -  Bbm  -  Bbm7/F Bbm Ab F# 
Strange infatuation seems to grace the evening tide
                 Ab Bbm  -  Bbm7/F 
I'll take it by your side
 Bbm Ab F# 
Such imagination seems to help the feeling slide
                 Ab Bbm  -  Bbm7/F 
I'll take it by your side
 Bbm Ab F# 
Instant correlation sucks and breeds a pack of lies
                 Ab Bbm  -  Bbm7/F 
I'll take it by your side
 Bbm Ab F# 
Oversaturation curls the skin and tans the hide
                 Ab Bbm  -  Bbm7/F 
I'll take it by your side

 Bbm 
Tick tock
Tick tock
Tick tock
      F# 
Tick tick
Tick
     Bbm 
Tick
Tick tock
Tick

 Ebm 
I'm unclean, a libertine
And every time you vent your spleen
 Bbm 
I seem to lose the power of speech
You're slipping slowly from my reach
 Ebm 
You grow me like an evergreen
                                       Bbm 
You've never seen the lonely me at all

 Ebm 
I
 Bbm  
    Take the plan, spin it sideways
 Ebm 
    I
 Bbm 
    Fall
 Ebm F# Bbm 
Without you I'm nothing
 Ebm F# Bbm 
Without you I'm nothing
 Ebm F# Bbm 
Without you I'm nothing
 Bbm 
Take the plan, spin it sideways
 Ebm F# Bbm 
Without you I'm nothing at all

 Ebm  -  F#  -  Ab  -  Bbm

Holding Nothing Back chords – Ryan Stevenson V3

 Artist: Ryan Stevenson
Song: Holding nothing Back

I cut a bit off the end, partly to shorten the song but mostly because I just didn't 
feel like doing the rest. These chords are as close as I could get by ear! It's by no means 
perfect but playable.. hope y'all enjoy
-Brad

Capo on the 3rd fret

Intro:
Verse 1:

 Am F C 
Behind this curtain there is
                       G 
A heart that's hurtin'
                Am 
It's been

Takin' a beating
      C G 
It's starting to fall apart
 Am F C 
And I feel like such an easy target
            G 
dodgin' bullets
      Am 
I'm exhausted
                   F C G 
How can every moment be this hard?

Pre-Chorus:

               Am F 
I'm Holdin' Nothin' back from you
                  C G 
Doesn't really matter what I lose
                       Am 
Got a heart that's open
      F 
I'm broken
        C G 
And I want you to Know

Refrain:
 C G 
   Jesus
 F G C 
I don't want anything
           G F 
Comin' in between
 G C 
You and me
 C G 
  Jesus
              F G F 
It doesn't matter what I have to go through
               G F 
I'm holdin' nothin' back
           G C 
nothin' back from you

Verse 2:
 Am F C 
I've got a list that goes on and on
        G Am 
It's overflowin'
                             F 
With memories of everything
         C G Am 
That I've been doin' wrong
                       F G 
And I'll be the first to say
                           G Am 
I've chased after so many foolish things
                       F C 
Looking for a way to kill the pain
  G 
Oooh

Pre-Chorus:

                   Am F 
I'm Holdin' Nothin' back from you
                       C G 
Doesn't really matter what I lose
                            Am 
Got a heart that's open
       F 
I'm broken
          C G 
And I want you to Know

Refrain:
 C G 
   Jesus
 F G C 
I don't want anything
             G F 
Comin' in between
 G C 
You and me
 C G 
  Jesus
                 F G F 
It doesn't matter what I have to go through
                  G F 
I'm holdin' nothin' back
             G C 
nothin' back from you

Holding Nothing Back chords – Ryan Stevenson V2

 Holding Nothing Back
Ryan Stevenson
Note: This contains many updates to the previous revision.
tab by dewsterdude 

          Eb Ab/Eb Eb Ab /Eb)
( Intro: 1-2-3-4 | 1-2-3-4 | 1-2-3-4 | 1-2-3-4 ) 
 Eb Gm                               
Behind this curtain there is a heart that's hurtin', 
             Cm Ab  
It's been, Takin' a beating, It's starting to fall apart
 Eb Gm                          
And I feel like such an easy target dodgin' bullets 
       Cm Ab  
I’m exhausted, How can every moment be this hard?

 Cm Bb    
I'm Holdin' Nothin' back from you, Doesn't really matter what I lose
Ab                                       ( BREAK )
Got a heart that's open, I'm broken, And I want you to Know

 Eb Gm Cm Ab            ( Eb )
Jesus, I don't want anything, Comin' in between, You and me
 Eb Gm Cm 
Jesus, Doesn't matter what I have to go through, 
                     Ab                      
I'm holdin' nothin' back, nothin' back from you

 Eb Cm                           
I've got a list that goes on and on, It's overflowin', 
    Ab  
With memories of everything that I've been doin' wrong
 Eb Cm                                                          
And I'll be the first to say, I've chased after 
                  Ab 
So many foolish things, Looking for a way to kill the pain 

                   Cm Bb                                     
Oooh, I'm Holdin' Nothin' back from you, Doesn't really matter what I lose
Ab                                     ( BREAK )
Got a heart that's open, I'm broken, And I want you to Know

 Eb Gm Cm Ab            ( Eb )
Jesus, I don't want anything, Comin' in between, You and me
 Eb Gm Cm 
Jesus, Doesn't matter what I have to go through, 
                     Ab                       ( Ab )         
I'm holdin' nothin' back, nothin' back from you
 
( Bridge )
 Ab Eb 
I try to do the right thing, Why am I strugglin', 
        Bb 
Day to day, With these same ol' things,
 Ab Eb 
Whatever's takin' you place, I'm gettin' out of the way, 
                        Bb          
I'm getting out of the way  ( -2-3-4 )

( Quietly )
 Eb Gm Cm Ab    
Jesus, I don't want anything, Comin' in between,…
Eb    Gm                    Cm                      Ab    (Break on 3, Mute on 4)             
Jesus, I'll do what I gotta do, I'm holdin' nothin' back, Back from you 

 Eb Gm Cm Ab            ( Eb )
Jesus, I don't want anything, Comin' in between, You and me
 Eb Gm Cm 
Jesus, Doesn't matter what I have to go through, 
                     Ab                       ( Ab )         
I'm holdin' nothin' back, nothin' back from you
 Eb Gm Cm Ab 
Back from you (-2-3-4|1-2-3-4), Nothing back from you (-2-3-4|1-2-3-4)
                   Eb Gm Cm Ab 
Nothing Back from you(-2-3-4|1-2-3-4),back from you(-2-3-4| 1-2-3-4|1)