Tag: now

Happy Now chords by Zedd

Here is the picking pattern: (For the Intro + First Chorus + Two Verses )
e|-------------------------|-----------------------------------------|
B|-----------3-----------3-|---------2------------2--------------2---|
G|------------------0------|-----------------------------------------|
D|-----2--------2----------------------------------------------------|
A|-------------------------|-----2-----------2--------------2--------|
E|-0-----------------------|-0-----------0--------------0------------|
  Em7 (Only use Em7 for     A
  this picking pattern,in
  other parts of the song
  you'll use Em)

e|-----------2-----------2-|-----------------------------------------|
B|-------------------------|---------0------------0--------------0---|
G|-------------------------|--------------------------------0--------|
D|-------------------------|-----0-----------------------------------|
A|-----2------------2------|-----------------0-----------------------|
E|-0------------0----------|-3-----------3--------------3------------|
  D                         G ( G chord used for this picking pattern is: 32XXXX )


[Intro]
Em7  A  D  G


[Chorus]
         Em     A
You're a world away
          D      G
Somewhere in the crowd
     Em      A
In a foreign place
        D     G
Are you happy now?
                Em      A
There's nothing left to say
     D       G 
So I shut my mouth
             Em       A
So won't you tell me, babe
        D     G
Are you happy now?



[Verse 1]
Em                          A
You're the only one who can up and run
                 D                    G
Leave me just as empty as the day you came
    Em                              A
And you hold all the cards, all the broken hearts
                 D                         G
Strung over your shoulder till it's all in vain

[Pre-Chorus]
             Em                       A
And only you know the strength in your teeth
                D                          G
The wash in the weight of your pockets, so deep
Em  A        D   G   
     And lonely



[Chorus]
         Em     A
You're a world away
          D      G
Somewhere in the crowd
     Em      A
In a foreign place
        D     G
Are you happy now?
                Em      A
There's nothing left to say
     D       G 
So I shut my mouth
             Em       A
So won't you tell me, babe
        D     G
Are you happy now?

[Post-Chorus]
Em   A    D      G                          Em   A    D      G
                You're the only one who can



[Verse 2]
Em
In the palm of your hands
        A
You can make me dance
                  D                           G
Spin me around in circles till I'm wrapped in string
    Em                              A
You keep on talking sweet till your fingers bleed
              D                    G
But don't you dare ask me how I've been

[Pre-Chorus]
             Em                       A
And only you know the strength in your teeth
                D                          G
The wash in the weight of your pockets, so deep
Em  A        D   G   
     And lonely



[Chorus]
         Em     A
You're a world away
          D      G
Somewhere in the crowd
     Em      A
In a foreign place
        D     G
Are you happy now?
                Em      A
There's nothing left to say
     D       G 
So I shut my mouth
             Em       A
So won't you tell me, babe
        D     G
Are you happy now?

[Post-Chorus]
Em   A    D      G                          
                You're the only one who can
Em   A    D      G                          
                You're the only, you're the only
Em   A    D      G                         
                You're the only one who can
Em   A    D      G                         
                You're the only, you're the only

[Outro]
         Em     A
You're a world away
          D      G
Somewhere in the crowd
     Em      A
In a foreign place
        D     G
Are you happy now?
                Em      A
There's nothing left to say
     D       G 
So I shut my mouth
             Em       A
So won't you tell me, babe
        D     G
Are you happy now?

Everything Now chords by Arcade Fire ver 2

[Video Intro]
C

C          Gm
I'm in the black again
              C
Can't make it back again
       Gm
We can just pretend
               F
We'll make it home again
               C
From everything now

[Instrumental]
F C G
F C G

[Verse 1]
              F
Every inch of sky's got a star
              C
Every inch of skin's got a scar
                        G
I guess that you've got everything now
              F
Every inch of space in your head
                      C
Is filled up with the things that you read
                   G
I guess you've got everything now
                    F
And every film that you've ever seen
                 C
Fills the spaces up in your dreams

That reminds me

G
(Everything now)
G
(Everything now)

[Verse 2]
              F
Every inch of road's got a sign
              C
And every boy uses the same line
                       G
I pledge allegiance to everything now
                F
Every song that I've ever heard
                       C
Is playing at the same time, it's absurd
                             G
And it reminds me, we've got everything now
                     F
We turn the speakers up till they break
                      C
'Cause every time you smile it's a fake!

Stop pretending, you've got…

[Chorus]
 G
(Everything now!) I need it
 G
(Everything now!) I want it
 F
(Everything now!) I can't live without
 F
(Everything now!) I can't live without
 C
(Everything now!)
 C
(Everything now!)
 C
Everything now

[Instrumental]
G

F C G
F C G

[Verse 3]
              F
Every ancient road's got a town
                 C
Daddy, how come you're never around?
                 G
I miss you, like everything now
                F
Mama, leave the food on the stove
                      C
Leave your car in the middle of the road
                       G
This happy family with everything now
                     F
We turn the speakers up till they break
                      C
'Cause every time you smile it's a fake!

Stop pretending, you've got...

[Chorus]
 G
(Everything now!) I need it
 G
(Everything now!) I want it
 F
(Everything now!) I can't live without
 F
(Everything now!) I can't live without
 C
(Everything now!)
 C
(Everything now!)

           G                                                    F
'Til every room in my house is filled with shit I couldn't live without

[Chorus]
 F
(Everything now!) I need it
 F
(Everything now!) I can't live without
 C
(Everything now!)
 C
(Everything now!)
 C
 Everything now

[La La La section]

G

F
La La La La La La La
C
La La La La La La La
G
La La La La La La La

[Instrumental]
F C G

G
Stop pretending, you've got...

[Chorus]
 F
(Everything now!) I need it
 F
(Everything now!) I want it
 C
(Everything now!) I can't live without
 C
(Everything now!) I can't live without
 G
(Everything now!) I can't live
 G
(Everything now!)

          F                                                    C
And every room in my house is filled with shit I couldn't live without
 C
(Everything now!) I need it
 C
(Everything now!) I can't live without

 G
(Everything now!) I can't live
 G
(Everything now!)
              F                                          C
Every inch of space in my heart is filled with something I'll never start

[Outro]
             G
The ashes of everything now
                F
And then you're black again
              C
Can't make it back again
                G
From everything now

Heaven Knows Im Miserable Now Tabs – The Smiths V4

 Heaven Knows...  (capo 2nd fret) – figure out the rhythm by listening to the song

    Play these first four with tremolo bar, then alternate strumming between the following open chords
     F#maj7     Dmaj7       C#m       B       open B                 open C#
F#|---8-----------3----------2--------0-------0-0-0-0-0--0-0-0-0-0---0-0-0-0-0--0-0-0-0-0--
C#|---10----------5----------3--------2-------5-5-5-0-0--5-5-5-5-0---7-7-7-0-0--7-7-7-7-0--
A |---9-----------4----------2--------2-------6-6-6-6-6--6-6-6-6-6---8-8-8-8-8--8-8-8-8-8--
E |---10----------5----------4--------2-------7-7-7-7-7--7-7-7-7-7---9-9-9-9-9--9-9-9-9-9--
B |---8-----------3----------2--------0----------------------------------------------------
F#|----------------------------------------------------------------------------------------


Verse 1 and 3
       F#maj7                             D#m                      G#m
F#|------7------7---7----7----7---7---7----9---9---9---9---9---9----9----9----9------------
C#|------9------9---9----9----9---9---9----9---9---9--12--12---9---10---10----9------------
A |------8------8---8----8----8---8---8----9---9---9---9---9---9----9----9----9------------
E |------9------9---9----9----9---9---9---11--11--11--11--11--11---11---11---11------------
B |------7------7---7----7----7---7---7----------------------------------------------------
F#|----------------------------------------------------------------------------------------

         B          slide to  C#                  Third verse, do this instead:
F#|------0----0----0----0--/--0------0--------|--------------------------------------------
C#|------5----5----5----5--/--7------0--------|--------5---------------7-------------------
A |------6----6----6----6--/--8------8--------|-----------6---------------8----------------
E |------7----7----7----7--/--9------9--------|----7---------7---7/9---------9-------------
B |-------------------------------------------|--------------------------------------------
F#|-------------------------------------------|--------------------------------------------


       F#maj7                             D#m                     G#m
F#|------7------7---7----7----7---7---7----9---9---9---9---9--9----9----9----9-------------
C#|------9------9---9----9----9---9---9----9---9---9--12--12--9---10---10----9-------------
A |------8------8---8----8----8---8---8----9---9---9---9---9--9----9----9----9-------------
E |------9------9---9----9----9---9---9---11--11--11--11--11--11--11---11---11-------------
B |------7------7---7----7----7---7---7----------------------------------------------------
F#|----------------------------------------------------------------------------------------


         B                               
F#|------0----0----0----0----0----0---------
C#|------5----5----5----5----5----0---------
A |------6----6----6----6----6----6---------
E |------7----7----7----7----7----7---------
B |-----------------------------------------
F#|-----------------------------------------


The Chorus: “In my life...” 
       F#maj7         B          slide to  C#
F#|------7------7-----0----0----0----0--/--0------0---------------------------------------
C#|------9------9-----5----5----5----5--/--7------0---------------------------------------
A |------8------8-----6----6----6----6--/--8------8---------------------------------------
E |------9------9-----7----7----7----7--/--9------9---------------------------------------
B |------7------7-------------------------------------------------------------------------
F#|---------------------------------------------------------------------------------------

“Why do I smile...”
       F#maj7        C#               B                  A#m
F#|------7------7-----0----0----0--/--0----0-----0--------4---4--4--4---4-----------------
C#|------9------9-----7----7----7--/--5----5-----5--------4---4--4--4---4-----------------
A |------8------8-----8----8----8--/--6----6-----6--------4---4--4--4---4-------

What Now My Love chords – Engelbert Humperdinck

 What Now My Love – Engelbert Humperdinck



Intro:        C Dm F G7 C C7 C F C Dm F G7 C C7 
What now my love, now that you've left me, how can I live, live through another day.
             C F C C7 Dm G7 C C7 
Watching my dreams turning into ash...es,    and all my hopes, into bits of clay.
 


  C C7 F Dm G Em Am Dm G C C7 
Once I could see, once I could feel,     now I am numb, I've become, so unreal.
         E7 G# A# D# Cm Dm G Dm G7   
I walk the night, without a goal,    stripped of my heart, and my soul.



             C F C Dm G7 C C7 
What now my love, now that it's ov..er,  I feel the world, closing in on me.
               C F C C7 Dm G7 C C7 
Here come the stars, tumbling around me,   there's the sky,   where the sea should be



 C C7 F Dm G Em Am Dm G C C7 
What now my love, now that you're gone,    I'd be a fool, to go on, and on.
        E7 G# A# D# Cm Dm G7   
No one would care, no-one would cry,    If I should live,  or  die.



Outro:
             C F C        
What now my love .. now there is nothing,

         Dm G C          
Only my last, only my last, good ... bye..

Its All Over Now chords – Saosin

 Saosin - It's All Over Now
 Rachel Lauren

 C 
Leave, go on and leave, you said
               Asus2 
Turn and walk away
            C 
Life's not worth it anymore
                                          Asus2 
You stopped shaking and you slowly faded away
            C 
Now you're lying on the floor

 C Asus2 
I can't hear your heart beating anymore, no
 C Asus2 G 
I can't hear your heart beating anymore, no

      F C Asus2 Am 
It's all over now
                 F C Am G 
What am I gonna do with all this time I set aside for you (aside for you)
   F C Asus2 Am 
I won't be needed now
                          F 
To pick up the phone and call you
                      G 
Like I'm supposed to know
               Dm 
You were all alone

 C 
Gone, memories gone
                  Asus2 
I know I was the one
           C G 
Who was ignoring you for way too long
 C 
I hope while sleeping
                       Asus2 
I know that if you're finding solid ground
             C 
You'll know everything is, everything is sound

 C Asus2 
I can't hear your heart beating anymore, now (everything is sound)
 C Asus2 G 
I can't hear your heart beating anymore, now

      F C Asus2 Am 
It's all over now
                 F C Am G 
What am I gonna do with all this time I set aside for you (aside for you)
   F C Asus2 Am 
I won't be needed now
                          F 
To pick up the phone and call you
                      G 
Like I'm supposed to know
               Dm 
You were all alone

 C Asus2 F G C Asus2 F G 
Maybe someday I can meet you there

      F C Asus2 Am 
It's all over now
                 F 
What am I gonna do
                 G 
What am I gonna do

      F C Asus2 Am 
It's all over now
                 F C Am G 
What am I gonna do with all this time I set aside for you
   F C Asus2 Am 
I won't be needed now
                          F 
To pick up the phone and call you
                      G 
Like I'm supposed to know
      F C Asus2 Am 
No I won't be needed now
                          F 
To pick up the phone and call you
                      G 
Like I'm supposed to know
               Dm 
You were all alone

Steady Now chords – Magnolia Electric Co

 STEADY NOW
Capo 4


 Am C Em 
Everything in it's place
     Am C Em 
The world does have to end in pain
    Am C Em 
Oh steady now
 Am C Em 
North star finds the cross-road
          Am C Em 
Though I walk always away from it
 Am C Em 
Pale moon lights the rocky shore
          Am C Em 
Though I always head straight for it
 Am C Em 
Steady now (x2)


     Am C Em 
Whatever is set before us
         Am C Em 
Will it all ever be enough
         Am C Em 
Will it be enough


 Am C Em 
Great bird into serpent
     Am C Em 
Oh steady now
 Am C Em 
Serpent then to wing
    Am C Em 
Oh steady now


 Am C Em 
Circle ghost with me
 Am C Em 
Above the cyprus grove
 Am C Em 
Steady now
         Am C Em 
Still a long way from home
     Am C Em 
The world does have to go in pain
    Am C Em 
Oh steady now
 Am C Em 
Everything In it's place
 Am C Em 
Steady now

See Me Now chords – The Kooks V2

 Verse:

            C# F# 
Well I've been a lot places,
                           C# F# 
I learned to tie my own tie too,
      C# F# 
I've met a lot of faces,
                                         C# F# F#m 
I've got some questions I'd like to ask you.

Chorus:

                       C# F# 
If you could see me now,
                       C# F# 
If you could see my smile,
                    C# F# 
See your little boy,
                      F# F#m 
Oh, would you be proud?

Verse:

              C# F# 
I've been in sticky situations,
                               C# F# 
I fell in love with a girl who likes girls,
        C# F#   (  G#  )  F# 
I know mom's thinking of you,
                          C# F# 
I'm busy trying to make it in this world,
    F# F# 
I hope I'm living your dream, daddy
                          C# F# F#m 
Have a drink on me upstairs

Chorus x4:

                        C# F# 
If you could see me now,
                         C# F# 
If you could see my smile,
                    C# F# 
See your little boy,
                      D# 
Oh, would you be proud?

Outro:
            C# F# 
Well I've been a lot places,
                    D# D#m 
I learned to tie my own tie too.

Right About Now chords – Melanie Safka

 Melanie Safka - Right About Now
 
 
CAPO: 2nd Fret
 
 
 G D 
Love is both high and low
 Em D C 
On one level, it's the feel of it all
                    D C 
On the other, it's dreams and it's truth, yeah
                    D G 
On the other, it's clean and it's blue, but...
 
 
                 D Em 
Tonight I'm not thinking of higher things
                                Bm C 
I'm thinking about the boy who just walked in
                      D C 
How I'd like to feel good again
                        D 
When I'm far away from you
 
 
CHORUS:
                     Em D G 
So, tell me what to do, right about now
                  Em D G 
I'm in love with you, right about now
                   C D 
I've been away so long, feeling so alone
                 C D G 
Tell me what to do, tell me what to do
                   Em G 
Sha la, sha la la laa la la, yeah
            Em 
Oh whoa, yeah
             G 
Right about now
                   Em G 
Sha la, sha la la laa la la, yeah
            Em G 
Oh whoa, whoa
 
 
                 D 
Darling help me to be strong
     Em D C 
I'm not the kind of woman who normally carries on, but
                   D C 
I've been away so long
                     D G 
Without the love of you, and 
 
 
           D Em 
I meet so much in the way
                      Bm C 
Of resistance and hostility everywhere
                     D C 
You know I need someone to care
                          D 
When I'm up there, in my room
 
 
CHORUS:
                     Em D G 
So, tell me what to do, right about now
                  Em D G 
I'm in love with you, right about now
                   C D 
I've been away so long, feeling so alone
                 C D G 
Tell me what to do, tell me what to do
                   Em G 
Sha la, sha la la laa la la, yeah
            Em G 
Oh whoa, yeah
                   Em G 
Sha la, sha la la laa la la, yeah
            Em G 
Oh whoa, whoa
 
 
INSTRUMENTAL:  G D Em D C D C D G D                 
But tonight I mustn't think about him
         Em Bm C 
Mustn't think about the boy who just walked in, but
                       D C 
Maybe if we just hold hands
                                 D G 
But I know what that'll lead up to
 
 
OUTRO:    (## fade to end ##)
                   Em G 
Sha la, sha la la laa la la, yeah
            Em 
Oh whoa, yeah
             G 
Right about now
                   Em G 
Sha la, sha la la laa la la, yeah
            Em     
Oh whoa, whoa
             G 
Right about now
                   Em G 
Sha la, sha la la laa la la, yeah
            Em     
Oh whoa, yeah
             G 
Right about now
                   Em G 
Sha la, sha la la laa la la, 

Now The One You Once Loved Is Leaving Tabs – Lydia V2

 -------------------------------------------------------------------------------
                 Now The One You Onced Loved Is Leaving - Lydia
-------------------------------------------------------------------------------

: Nathan Adams


This is pretty close although probably not exact. Feedback/corrections are appreciated.
Thanks to the youtube covers and UG community for helping me to hear the song.
And of course, thanks to Lydia for writing such a great song.


Tuning: EADGBe (Standard)



                                Intro/Verse:

                   Bm                                  Bm

e|----------------------10-----------'------12--------------10-----------|
B|-----------------------------------'-----------------------------------|
G|---7-----------9-/11------11-------'--12------12------11------11-------|
D|-------------------------------12--'--------------12--------------12---|
A|-----------------------------------'-----------------------------------|
E|-----------------------------------'-----------------------------------|


                  F#m                                  F#m

e|-------6-----------7---6-----------'------10---------------5-----------|
B|-----------5---------------5-------'-----------7-----------------------|
G|--\6-----------6---------------6---'---7-----------7---6---------------|
D|-----------------------------------'-----------------------------------|
A|-----------------------------------'-----------------------------------|
E|-----------------------------------'-----------------------------------|


                   G                                   A

e|-------------------0---2---0-------'-------------------0---2---0-------|
B|---0---3---2---3---------------0---'-------3---2---3---------------0---|
G|-----------------------------------'-----------------------------------|
D|-----------------------------------'-----------------------------------|
A|-----------------------------------'-----------------------------------|
E|-----------------------------------'-----------------------------------|


                   G                           F#m

e|-----------------------------------'-------------------|
B|-----------3---------------5-------'-----------7-------|
G|-------4-------4-------6-------6---'-------6-------6---|
D|---5---------------7---------------'---8---------------|
A|-----------------------------------'-------------------|
E|-----------------------------------'-------------------|




                                   Chorus:


Bm
Stay for me

F#m
Because it was the first

Bm
Stay on me

F#m



                                   Bridge:


                         Suddenly a cloud must have

                   G                                   G

e|-----------------------------------'-----------------------------------|
B|-------3---------------------------'-----------------------------------|
G|-----------4-------4-----------4---'-----------4-----------4-----------|
D|---------------5-------5-----------'---5-----------5-----------5-------|
A|-----------------------------------'-----------------------------------|
E|---3-----------------------3-------'-------3-----------3---------------|


                              Cut, a whole in

                   D                                   D

e|-------------------2-----------3---'-----------5-----------5-----------|
B|-------3---------------3-----------'---3-----------3-----------3-------|
G|-----------2---------------2-------'-------2-----------2---------------|
D|---0-----------0-------------------'-----------------------------------|
A|-----------------------------------'-----------------------------------|
E|-----------------------------------'-----------------------------------|


                            My head, when I was

                   A                                   A

e|-----------------------------------'-----------0-----------0-----------|
B|-------2-----------2----------

Now Is The Time Tabs – Delirious

 -------------------------------------------------------------------------------
                             NOW IS THE TIME - Delirious?
-------------------------------------------------------------------------------

Tuning: Standard

Intro
(Guitar One's Part)
e|------------------------------------------------------------------|
B|------------------------------------------------------------------|
G|------------------------------------------------------------------|
D|------------------2-2-2-2-2-2-2-2---------------------------------| Repeat as needed until verse
A|--3-3-3-3-3-3-3-3-----------------2-2-2-2-2-2-2-2-5-5-5-5-5-5-5-5-|
E|------------------------------------------------------------------|

(Guitar Two comes in on the first repeat of guitar one's part)
e|---------------------------------------------------------------------------|
B|---------------------------------------------------------------------------|
G|---9-7-9-7/2-----------2---9-7-7-9-7-7/2-----------------------------------|
D|---------------------------------------------------------------------------|
A|---------------------------------------------------------------------------|
E|---------------------------------------------------------------------------|

(Guitar Two Continued)
e|---------------------------------------------------------------------------|
B|---------------------------------------------------------------------------|
G|---2\9-7-7/2--2\9-7-7/2----------------------------------------------------|
D|---------------------------------------------------------------------------|
A|---------------------------------------------------------------------------|
E|---------------------------------------------------------------------------|

Verse
(Guitar Two)
e|---------------------------------------------------------------------------|
B|---------------------------------------------------------------------------|
G|--9-7-9-7/2-*-9-9-9-9-9-11-11-11-12-12-12-12--------------------------------|
D|---------------------------------------------------------------------------|
A|---------------------------------------------------------------------------|
E|---------------------------------------------------------------------------|

The following is played at the marked "*" during the second verse only 
e|---------------------------------------------------------------------------|
B|---------------------------------------------------------------------------|
G|-9-7-9-7/2-9-7-9-7/2-------------------------------------------------------|
D|---------------------------------------------------------------------------|
A|---------------------------------------------------------------------------|
E|---------------------------------------------------------------------------|

For the Chorus, play the following progression as power chords: C-G-D-G-D-C-G-D-G-D-C-G-A-G-A

For the Bridge, play C-E as power chords, with considerable palm-muting in between.

In general, listen to the song, and you'll get it.

Solo
e|---------------------------------------------------------------------------|
B|---------------------------------------------------------------------------|
G|---------------------------------------------------------------------------|
D|---9--12-11-12-14-16-17-19--9-12-11-12-14-16-17-19-21----------------------|
A|---------------------------------------------------------------------------|
E|---------------------------------------------------------------------------|

That's all I have.  Hopefully it helps out some people who like this song.

************************************

| /   slide up
| \   slide down
| h   hammer-on
| p   pull-off
| ~   vibrato
| +   harmonic
| x   Mute note
| b   Bend
| pb  Pre-bend
| br  Bend release
| pbr Pre-bend release
| brb Bend release bend

************************************

Every Now And Then chords – Girls Aloud

 Capo 4

 Am C G Dm 
All this time, looking for a light
 Am C G Am 
All this time, I’m still trying
    C G 
I gave you all my love
    Dm Am 
I took it back again
          C G 
But the candle in my heart
      Dm Am    
It flickers now and then
     C G 
I knew it from the start
     Dm Am 
I knew it at the end
     C G 
We said it never work
               Dm Am 
But I still think about you every now and then
      C G 
And you’re out of my heart
   Dm Am 
Swear I can’t pretend
           C G 
But the heart tears apart
              Dm Am 
As I still think about you every now and then
        C G 
Every now and then, 
  Dm Am 
Now, right then
        C G Dm 
Right now, right then, right now
Oh right now

(here you can just move to Capo 6 and continue with the same pattern)

  Bm D 
Never ever going back,
    A Em 
I said I never would again,
       Bm D 
it’s better now that we’re apart,
               A Em 
but I still think about you every now and then
  Bm D 
now and then, now and then, 'bout you every now and then
  A 
now and then,
                     Em 
but I still think about you every now and then
  Bm D 
now and then, now and then, 'bout you every now and then
  A 
now and then,
                     Em 
but I still think about you every now and then

  Bm D 
Never ever going back,
    A Em 
I said I never would again,
       Bm D 
it’s better now that we’re apart,
               A Em 
but I still think about you every now and then
  Bm D 
now and then, now and then, 'bout you every now and then
  A 
now and then,
                     Em 
but I still think about you every now and then
  Bm D 
now and then, now and then, 'bout you every now and then
  A 
now and then,
                     Em 
but I still think about you every now and then

                   Bm D 
I gave you everything,
                   A Em 
I even wore your ring,
                   Bm D 
you got under my skin,
                A Em 
and you know why.
                   Bm D 
you left me wondering,
                      A Em 
you left the shadows in,
                   Bm D 
the seven deadly sins,
                 A Em 
that you can't hide.
                             Bm D 
'Cause if the love is not enough,
                       A Em 
when I’m going gets tough,
                           Bm 
you give me all that you got, 
         D A Em 
but my heart won’t beat again

  Bm D 
Never ever going back,
    A Em 
I said I never would again,
       Bm D 
it’s better now that we’re apart,
               A Em 
but I still think about you every now and then
  Bm D 
now and then, now and then, 'bout you ever

Camcam – U Now intro Tabs

 -------------------------------------------------------------------------------
                             SONG NAME - Band Name
-------------------------------------------------------------------------------
: DarveL


Tuning:

e|-----------------------------7---------------------------------------------|
B|-----8-8-7-8----10-10-8-7------10-8-7--------------------------------------|
G|--------------------------0------------------------------------------------|
D|---------------------------0-----------------------------------------------|
A|-7-7----------------------------------7------------------------------------|
E|-------------2-------------------------------------------------------------|




************************************

| /   slide up
| \   slide down
| h   hammer-on
| p   pull-off
| ~   vibrato
| +   harmonic
| x   Mute note
| b   Bend
| pb  Pre-bend
| br  Bend release
| pbr Pre-bend release
| brb Bend release bend

************************************

Im Just Going To Leave Now chords – Defiance Ohio

 DEFIANCE, OHIO – I’m Just Going To Leave Now

e|----------------------|  
B|---0----0----0----0---|
G|--0-0--0-0--0-0--0-0--|  x3
D|-5----4----2----0-----|
A|----------------------|
E|----------------------|

 C D C G D C 
It's been a bad day.
                  Bm C 
Just listened to jawbreaker, wondered what's wrong with me,
         G D C 
And stared in the mirror,
                Bm C 
Waited so patiently for the end of the summer.
   G D C 
Just got my hopes up and dashed
 Bm C 
I'm just sucker, I guess.
   G D C 
It's so warm outside
      Bm C 
But I'm still sad.

 Em G C C C C C C 
Even on the best days in September
 Em G C C C C C C 
It's hard to find my piece of mind
 Em G C C C C C C 
I'd like to blame it on the weather

 Em G C D C G D C    
So disappointed to come home to this
                 Bm C 
I think I'll sleep on the roof tonight
 G D C 
Counting sheep and a couple regrets
      Bm C 
As cars drive by
 G D C      
It's kind of hard to figure anything out
         Bm C 
When people don't talk at all
 G D C 
I hate these bad days.
     Bm C 
I think I'll just skip town.

 Em G C C C C C C 
Even on the best days in September
 Em G C C C C C C 
It's hard to find my piece of mind
 Em G C C C C C C 
I'd like to blame it on the weather

 Em G C ...
 D C G D C G D C G D C G D C G

See Me Now intro Tabs by Infected Mushroom

 *STANDARD TUNING*
Those are the exact tabs :)

E--------2-4-6---------------------------------------------|
B--4-4-----------7-9---7-7--9-9-11------------9-9--10------|
G----------------------------------11----11-11--------11---|
D-------------------------------------13----------------13-|
A----------------------------------------------------------|
E----------------------------------------------------------|

E------------------------11-------------------------------|
B-----------9--11-----------9---7-7-9-9-11----------------|
G--------11--------------------------------11-------------|
D-13--13--------------------------------------13----------|
A---------------------------------------------------------|
E---------------------------------------------------------|

E---------------------------------------------------------|
B--------9-9-10-------------------------------------------|
G--11-11--------11----------------------------------------|
D------------------13-------13-11-13----------------------|
A---------------------------------------------------------|
E---------------------------------------------------------|

Hot Right Now Acoustic chords – Rita Ora

 Rita Ora - Hot Right Now (acoustic)

standard tuning ( E A D G B E ) 
intro:  Em Em - D  x5 
        Em Em - G Am 
Got your hands up cause you think you've got it
                             D Em 
Going crazy, we're not even started
                  Em 
Eh oh eh oh eh eh,  eh oh eh oh oooh
 Am 
It's so funny that you think you're winning
                                 D B 
Cause somebody told you who was spinning
                B Bbm Am D 
Eh oh eh oh eh eh, eh oh eh oh eh eh

 Em D 
You know you're only in it
          Em D Em D 
Cuz it's hot right now, hot right now
         Em D 
Turn it up right now
          Em D Em D 
Put your hands in the air if you want it right now
 Em B Bbm 
Eh oh eh oh, hot right now

You know you're only in it
Cuz it's hot right now, hot right now
Turn it up right now
Put your hands in the air if you want it right now
Eh oh eh oh hot right now

intro 
Oooohhh.....


You've got the latest places on your radar
But by the time you show your face, it's over
Eh oh eh oh eh eh, eh oh eh oh oooh
You got the magic numbers on your speed dial
And you're so busy dropping names, but meanwhile (meanwhile)

You know you're only in it
Cuz it's hot right now, hot right now
Turn it up right now
Put your hands in the air if you want it right now
Eh oh eh oh hot right now
You know you're only in it
Cuz it's hot right now, hot right now
Turn it up right now
Put your hands in the air if you want it right now
Eh oh eh oh hot right now

intro (just  Em Em -G)

  Am 
And let me see the club get hotter, hotter
I wanna see your hands up higher, higher
            D Em 
I don't need close shouts oh oh oh oh
Can I get a woah!

And let me see the club get hotter, hotter
I wanna see your hands up higher higher
I don't need close shouts oh oh oh oh
Can I get a woah!

You know you're only in it
Cuz it's hot right now, hot right now
Turn it up right now
Put your hands in the air if you want it right now
Eh oh eh oh hot right now
You know you're only in it
Cuz it's hot right now, hot right now
Turn it up right now
Put your hands in the air if you want it right now
Eh oh eh oh hot right now

 D5  /  E5 
(put your hands up...)
          B Bbm Em 
Cuz it's hot right now... 


CHORDS: 
 Em :  x79987 
 D :   x57775
 G :   355433
 Am :  577555
 B :   x35553
 Bbm : x24432 
 D5 :  x577xx 
 E5 :  0799xx

Take A Look At Me Now Acoustic chords – Greyson Chance

 Key: E

Tuning: Standard EADGBe

Chords used:
 E  -    022100
 EM7  -  021100
 B  -    x24442
 C#m  -  x46654
 A  -    x02220
 F#m  -  244222
 D  -    xx0232
 B/Eb  - x698xx
 G#m  -  466444


Intro:  E - F#m - A -- x2


Verse 1:
 E 
  So long to electric fences
 B 
  Not much left for me
             A 
to run from now
Guess I'll turn 
myself around
 E 
  I'm putting down my defenses
 B/Eb 
    These wings are gonna 
                 A 
take me off the ground
It's freedom's
sweetest sound


Refrain 1:
 F#m E 
   And I'll admit 
            B/Eb 
that I was wrong
And it's obvious
      F#m 
that I'm Finally 
 E D (hold)
taking my fist down


Chorus 1:

Would you stop and 
                   E B A 
take a look at me now?
Could you stop and
                   E B A 
take a look at me now?
When you're standing 
right in front of me
 C#m 
   You're looking at the 
 G#m A 
positive that was negative
Would you stop and take
              E B A 
a look at me now?


Post Chorus: E-F#m-A--


Verse 2:
 E 
  Don't know what
you get tomorrow
 EM7 
   Not sure where I 
              A 
want to go tonight  
Isn't that what
life's about?
 E 
  So long for the
fears and worries
 EM7 
   Let's go and you
won't be sorry
 A 
I'll be the one 
to get you out


Refrain 2:
 F#m E 
   Chase the demons 
       B/Eb 
out tonight
You can see how
           F#m 
fast they run
          E 
When you turn the
              D (hold)
light switch on


(Repeat Chorus 1)


Bridge:
 C#m 
   And it gets more beautiful
    A 
it gets more beautiful
        F#m 
As the sun turns into rain
         A 
And the hurt turns into shame
 C#m 
   And it gets more wonderful
    A 
it gets more wonderful
         F#m 
Can you get this
through your brain
          A A (hold)
That you cannot lose again?


Chorus 2:

Would you stop and 
                   E B A 
take a look at me now?
Could you stop and
                   E B A 
take a look at me now?
When you're standing 
right in front of me
 C#m 
   You're looking at the 
 G#m A 
positive that was negative
Would you stop and take
              E B A E F#m A E F#m A E (hold)
a look at me now?

I Can See Clearly Now chords – Johnny Nash V4

 I Can See Clearly Now - Johnny Nash (and many others).

INTRO:   C F G7 C C Dm F Dm Dm7 C G7 G C Dm F Dm Dm7 G7 F G 
I can see clearly now  the  rain is gone;I can see all obstacles in my way.
 C Dm7 Dm F Dm Dm7 C G7 G 
Gone are  the dark clouds that  had me blind, 
      Dm7 Dm A# F Dm7 Dm F 
It's gonna be a bright, bright, sun-shiny day,
      Dm7 Dm A# F Dm7 Dm C 
It's gonna be a bright, bright, sun-shiny day.

    C Dm F Dm Dm7 C G7 G C Dm F Dm Dm7 F         
I think I can make it now the pain has gone; all of the bad feel-ings have
 G7 G 
disappeared.
 C Dm7 Dm A# F Dm Dm7 C G7 G 
Here  is   the rainbow I've been praying for,
      Dm7 Dm A# F Dm7 Dm F 
It's gonna be a bright, bright, sunshiny day;
      Dm7 Dm A# F Dm7 Dm C 
It's gonna be a bright, bright, sunshiny day.

 D# D7 A# 
Look all around there's nothing but blue skies;      
 D# D7 G7 G     
Look straight ahead there’s nothing but blue skies.

(6thFr)(5thFr)(6thFr) (3rdFr) (2ndFr) (1stFr)  (open chords)    
   F# F F# G7 F# F7 F E Am A C Dm F Dm Dm7 C G7 G C Dm F Dm Dm7 G7 G 
I can see clearly now the  rain is gone; I can see all obstacles in my way.
 C Dm7 Dm F Dm Dm7 C G7 G 
Gone are  the dark clouds that had me blind,
      Dm7 Dm A# F Dm7 Dm F 
It's gonna be a bright, bright, sunshiny day;
      Dm7 Dm A# F Dm7 Dm C 
It's gonna be a bright, bright, sunshiny day.

 C Dm7 Dm A# F Dm7 Dm C 
Oh what  a   bri.i.i.i.ight, sunshiny day. 

 C Dm7 Dm A# F Dm7 Dm C 
It's gonna be a bri.i.i.i.ight, sunshiny day.     (x2) Fading

Now You Die Tabs by Dsis

 Intro riff part 1:

D|-----------|
A|-----------|
F|-----------|
C|6-6-6-3-3-3|
G|6-6-6-3-3-3|
C|6-6-6-3-3-3|

Intro riff part 2:

D|------------------------------------------------|
A|------------------------------------------------|
F|------------------------------------------------|
C|6-0-0-6-0-0-6-0-0-5-6-7-6-0-0-6-0-0-6-0-0-5-6-7-|
G|6-0-0-6-0-0-6-0-0-5-6-7-6-0-0-6-0-0-6-0-0-5-6-7-|
C|6-0-0-6-0-0-6-0-0-5-6-7-6-0-0-6-0-0-6-0-0-5-6-7-|

Intro riff part 3:

D|----------------------------------------------------|
A|----------------------------------------------------|
F|----------------------------------------------------|
C|6-0-0-6-0-0-6-0-0-5-6-7-6-0-0-6-0-0-10-13-0-17-15-0-|
G|6-0-0-6-0-0-6-0-0-5-6-7-6-0-0-6-0-0-10-13-0-17-15-0-|
C|6-0-0-6-0-0-6-0-0-5-6-7-6-0-0-6-0-0-10-13-0-17-15-0-|

Intro riff part 4:

D|------------------------------------------------|
A|------------------------------------------------|
F|------------------------------------------------|
C|6-0-0-6-0-0-6-0-0-5-6-7-6-0-0-6-0-0-6-0-0-5-6-7-|
G|6-0-0-6-0-0-6-0-0-5-6-7-6-0-0-6-0-0-6-0-0-5-6-7-|
C|6-0-0-6-0-0-6-0-0-5-6-7-6-0-0-6-0-0-6-0-0-5-6-7-|

Intro riff part 5:

D|-------------------------------------|
A|-------------------------------------|
F|-------------------------------------|
C|6-0-0-6-0-0-6-0-0-5-6-7-6-0-0-6-0-0-6|
G|6-0-0-6-0-0-6-0-0-5-6-7-6-0-0-6-0-0-6|
C|6-0-0-6-0-0-6-0-0-5-6-7-6-0-0-6-0-0-6|

Pre-verse riff 1:

D|-------------------------------|
A|-------------------------------|
F|-------------------------------|
C|5-5-3-0------------------------| 
G|5-5-3-0--(Let ring for 2 bars)-|
C|5-5-3-0------------------------|

Verse 1 riff part 1: (Play 4 times)

D|------------------------------------------------|
A|------------------------------------------------|
F|------------------------------------------------|
C|------------------------------------------------|
G|------------------------------------------------|
C|6-0-0-6-0-0-6-0-0-5-6-7-6-0-0-6-0-0-6-0-0-5-6-7-|
PM. . . . . . . . . . . . . . . . . . . . . . . .

Verse 1 riff part 2: (Play with Wha-wha)

D|------------------------------------------------|
A|------------------------------------------------|
F|------------------------------------------------|
C|------------------------------------------------|
G|------------------------------------------------|
C|0-0-0-0-0-0-0-0-0-0-0-0-3-3-3-3-3-3-6-6-6-5-5-5-|

Verse 1 riff part 3: (Play with Wha-wha)

D|-----------------------------------|
A|-----------------------------------|
F|-----------------------------------|
C|-----------------------------------|
G|-----------------------------------|
C|0-0-0-0-0-0-0-0-0-0-0-0-3-3-3-3-3-3|

Pre-chorus riff:

D|-----------|
A|-----------|
F|-----------|
C|6-6-6-3-3-3|
G|6-6-6-3-3-3|
C|6-6-6-3-3-3|

Chorus 1 riff part 1:

D|------------------------------------------------|
A|------------------------------------------------|
F|------------------------------------------------|
C|6-0-0-6-0-0-6-0-0-5-6-7-6-0-0-6-0-0-6-0-0-5-6-7-|
G|6-0-0-6-0-0-6-0-0-5-6-7-6-0-0-6-0-0-6-0-0-5-6-7-|
C|6-0-0-6-0-0-6-0-0-5-6-7-6-0-0-6-0-0-6-0-0-5-6-7-|

Chorus 1 riff part 2:

D|----------------------------------------------------|
A|----------------------------------------------------|
F|----------------------------------------------------|
C|6-0-0-6-0-0-6-0-0-5-6-7-6-0-0-6-0-0-10-13-0-17-15-0-|
G|6-0-0-6-0-0-6-0-0-5-6-7-6-0-0-6-0-0-10-13-0-17-15-0-|
C|6-0-0-6-0-0-6-0-0-5-6-7-6-0-0-6-0-0-10-13-0-17-15-0-|

Chorus 1 riff part 3:

D|------------------------------------------------|
A|------------------------------------------------|
F|------------------------------------------------|
C|6-0-0-6-0-0-6-0-0-5-6-7-6-0-0-6-0-0-6-0-0-5-6-7-|
G|6-0-0-6-0-0-6-0-0-5-6-7-6-0-0-6-0-0-6-0-0-5-6-7-|
C|6-0-0-6-0-0-6-0-0-5-6-7-6-0-0-6-0-0-6-0-0-5-6-7-|

Chorus 1 riff part 4:

D|-----------------------------------|
A|--

This Is Now chords – Casting Crowns

 This song is Track 7 on the Album "Thrive." I went and saw Casting Crowns the day this
album was released, and they played this song. I can't say that it's 100% accurate, it is
pretty close though. If you spot anything wrong either send me an email, or post in the 
comments and I'll try to fix it.


This song is in standard tuning with a Capo on the 3rd fret. This is how they play it.
You can remove the Capo, or move it up/down the neck to fit your vocal range.


Notes: For the verse. If you listen to the song you will hear that they play two sets of
6 evenly placed downstrokes on the "G" "G/E" and "Em7", and on the last downstroke of
each set you play the "A" sting (5th string) open. (e.g. on the last stroke of "G" you 
will play 300022, instead of 320022) Also, the last time you strum A7sus4 in a 
sequence it usually sounds good to drop your pinky and play "-02033" for added embellishment. 


          Chord Guide

 G          3 2 0 0 3 3
 G/E        0 2 0 0 3 3
 Em         0 2 2 0 0 0
 Em7        0 2 2 0 3 3
 C          0 3 2 0 1 0
 Cadd9      - 3 2 0 3 3
 A7sus4     - 0 2 0 3 0
 D          - - 0 2 3 2



[Intro]
 G D Em7 A7sus4 
Whoa  Whoa  Whoa  Whoa


[Verse 1]
                            G 
Standing at the water's edge
                                       G/E 
I dropped my dreams when I dropped my nets
                        Em7 
No hesitation no regrets
                     A7sus4 G 
I followed you but that was then and this is now


[Verse 2]
                                        G 
You washed my feet and you changed my name
                           G/E 
I swore I'd never be the same
                                     Em7 
Just like the tides I guess people change
                 Asus4 G 
'Cause that was then and this is now


[Chorus]
  G D 
I wish I could go back but I don't know how
                             Em7 
I remember when I stood my ground
I swore I'd never let you down
                         C 
I want to be that man again
    A7sus4 G 
But that was then and this now
                            Wh-oa
  D Em7 A7sus4 
 Whoa  Whoa  Whoa


[Verse 3]
                                   G 
I watched the blind man lift his head
                            G/E 
And look his savor in the eyes
                            Em7 
I heard a dead man take a breath
      A7sus4 G 
Dropped to my knees as I watched him rise


[Verse 4]
                                G 
And I felt the sea beneath my feet
                                G/E 
As I stepped out on the angry waves
                              Em7 
But you saw the storm raging within
                         A7sus4 G 
You reached out and calmed me then but this is now


[Chorus]
  G D 
I wish I could go back but I don't know how
                             Em7 
I remember when I stood my ground
I swore I'd never let you down
                         C 
I want to be that man again
    A7sus4 Cadd9 
But that was then and this now


[Bridge]
     C Em 
Just when I thought my sin had closed the door
      C Em 
I see my savior standing on the shore
            Cadd9 
With arms wide open
       Cadd9 D A7sus4 
Just like the first time

Are You Happy Now chords – Ellie Goulding

 Gm                                     
I saw your picture in the paper today.
   Dm C 
I didn't know the eyes, but I recognized your face.
   Gm 
I read what you're doing and doing it in style.
   Dm C 
Last year I might have cried, but tonight I'll try to smile.
   C Gm 
Are you happy now? 


    Am                     
I let your birthday pass, 
    Dm 
I met your friends at last,
    Am C 
I didn't even ask
    C Gm 
If you're happy now.


   Am               
I barely made each night
   Dm 
Somehow the days rolled by.
   Am C 
The part that loved you died,
   C Gm 
Are you happy now?


   Gm 
I saw you walking in the rain and holding no one's hand.
   Dm C 
I started feeling things that I couldn't understand.
   Gm 
Now you're swinging from my heart, I'm ringing up my friends.
   Dm C 
"Before it all begins," they say, " remember how it ends".
   C Gm 
Are you happy now?


   Am                         
I let your birthday pass, 
   Dm 
I met your friends at last,
   Am C 
I didn't even ask 
   C Dm 
If you're happy now.

   Am 
I barely made each night,
   Dm 
Somehow the days rolled by.
   Am C 
The part that loved you died,
   C Gm 
Are you happy now?


   Gm C 
I saw you walking in the rain and holding no one's hand.
   Gm C 
You're swinging from my heart, I'm ringing up my friends.
   C Gm 
And are you happy now?