Tag: orange

Sunflower chords by Rex Orange County

[Intro]
Ab         Db
Woah, oh
          Gb
I want to know
            Ab
Where I can go
                Ebm
When you're not around
                Ab
And I'm feeling down
   Bb        B
So won't you stay for a moment ?
         B
So I can say
Ebm         Db                   Gb
I,                     I need you so
                    Ab                    B
Cause right now you know, that nothing is new
                      Bbm
And I'm obsessed with you
       Db
Then I fell to the ground
And she smiled at me and said

[Verse]
                      Gb
I don't wanna see you cry, ooh
                  Gbm           Db
You don't have to feel this emptiness
           Abm                          Ebm
She said I love you till the day that I die
            Gb
Maybe she's right
                    Gbm               Db
Cause I don't wanna feel like I'm not me
          Abm                      Ebm
And to be honest I don't even know why
                              Gb
I let myself get down in the first place

[Chorus]
              Ebm             Db
I'm trying to keep my mind at bay
   Abm                    Ebm
Sunflowers still grows at night
                                                    Gb
Waiting for a minute till the sun's seen through my eyes
Ebm                      Db
Make it down down, do-do-down
        Abm           Ebm
Make it do-down, du du du
Ebm                                                 Gb
Waiting for a minute till the sun's seen through my eyes

[Verse 2]
(Ebm)
You know you need to get yourself to sleep
            Ebm             Db
And dream a dream of you and I
           Abm                  Ebm
There's no need to keep an open eye
I promise I'm the one for you
                                   Gb
Just let me hold you in these arms tonight
I'm lucky to be near you
            Gbm      Db
You can see it in my face
           Abm                        Ebm
But when I fucked my shit up too many times
                                             Gb
Why would I let myself get down in the first place

[Chorus]
              Ebm             Db
I'm trying to keep my mind at bay
   Abm                    Ebm
Sunflowers still grows at night
                                                    Gb
Waiting for a minute till the sun's seen through my eyes
Ebm                      Db
Make it down down, do-do-down
        Abm           Ebm
Make it do-down, du du du
Ebm                                                 Gb
Waiting for a minute till the sun's seen through my eyes

[Breakdown]
      Ebm                                 Db
And so she sat me down and told me that I didn't have to cry
       Abm                              Ebm
Said I didn't need to get down and feel empty inside

Ebm
And told me that she love me for as long as she's alive
Ebm                                Ebm                            Db
And well, maybe she's right, cause I hate it when I feel like I'm not me
Abm                              Ebm
See, I honestly, don't even know why
Ebm
I, I honestly don't even know why

Ebm  Db   Abm   Ebm

[Chorus]
              Ebm             Db
I'm trying to keep my mind at bay
   Abm                    Ebm
Sunflowers still grows at night
                                                    Gb
Waiting for a minute till the sun's seen through my eyes
Ebm                      Db
Make it down down, do-do-down
        Abm           Ebm
Make it do-down, du du du
Ebm                                                 Gb
Waiting for a minute till the sun's seen through my eyes

Corduroy Dreams Chords by Rex Orange County

[Verse 1]
A              F#m
How could I ignore you?
  E               B   E
Trust me I adore you
        B                    E  F#m B
We’re swimming through our dreams
A                F#m
Kiss me in the shower
 E              B  E
For a couple hours
               B        
Though we’re only sixteen
     E
And sit down beside me
B                  
Don’t call me daddy
A                          E
Cause that’s just fucking weird
  E                   A
Promise that you'll stay here
               E
You and I can lay here
A                 E  A
Until the end of time

[Chorus]
     E                              D
But girl, well don't you worry about me
    A                        C            G  A
It ain’t new to me, feeling this lonely (Darling)
E                   D
Girl, don't worry about me
               E         D
But if you’re ever unhappy
      E                          B
Then maybe, baby, I must let you go
E       B
Let you go

[Verse 2]
A              F#m           E               B   E
Baby now it’s best here, to lay me down and rest here
        B             E  F#m B
Let’s dream of Corduroy
A                  F#m     E     B                       E           
Work for what you love to do and I will watch right over you
            B         
With your heart I’ll never toy
     E
And you’re the other half of me. Drink and sleep and laugh with me
                B
Take me from myself
     E
See I’m a fucking basket-case. Until I'm able to see your face
     B
You saved me from myself

[Chorus]
     E                              D
But girl, well don't you worry about me
    A                        C            G  A
It ain’t new to me, feeling this lonely (Darling)
E                   D
Girl, don't worry about me
               E         D
But if you’re ever unhappy
      E                          B
Then maybe, baby, I must let you go
E       B
Let you go

Let The Love Back In chords – The Orange Lights

 Gm Dm 
Sometimes, it just don't make no sense at all
 F C       
I'm still trying to find a reason for it all
   Gm Dm 
My life I thought it would be something beautiful
      F C Dm 
But now it feels like there's nothing there at all anymore
             C A# 
Give me the sunshine instead of the rain
          C 
All that I want is to be happy again
 Dm C A# 
Give me the sunshine instead of the rain
              C 
Give me the sunshine instead of the rain
            Gm Dm 
We got to let the love back in again
 F C 
Let the love back in again
    Gm Dm 
Oh why does it have to be so hard
 F C 
How did you and me get where we are
 Gm Dm 
How did you become invisible
 F C Dm 
Your mind is now just nothing there at all anymore
 Dm C A# 
Give us the sunshine instead of the rain
          C 
All that we want is to be happy again
 Dm C A# 
Give us the sunshine instead of the rain
            Gm Dm 
We got to let the love back in again

Dont Talk To Me chords – Orange Is The New Black

 Hello! I looked up the song to find chords and couldn't find any, so I made something up that sounds right!
You can repeat over and over. I hope you enjoy!

CAPO 4

 Am Em 
Stop, don't talk to me.

 C G 
Loser, Lame-Ass, Wanna Be.

       Em C D 
Like, Oh, Totally.

 Am Em 
Stop, don't talk to me.

 C G 
Loser, Lame-Ass, Wanna Be.

       Em C D 
Like, Oh, Totally.

 Am Em 
Stop, don't talk to me.

 C G 
Loser, Lame-Ass, Wanna Be.

       Em C D 
Like, Oh, Totally.

 Am Em 
Stop, don't talk to me.

 C G 
Loser, Lame-Ass, Wanna Be.

       Em C D 
Like, Oh, Totally.

 Am Em 
Stop, don't talk to me.

 C G 
Loser, Lame-Ass, Wanna Be.

       Em C D 
Like, Oh, Totally.

Waltz About Whiskey chords – Mandolin Orange

 C Am F C 
Once the gettin' was good, but now the gettin's  got gone
         G F C 
So i'm going downtown just to  tie one on
         C Am F C 
I'm oak aged and sour, I'm  goin' down by the hour
         Am F C 
and I'm as blue  as the night is long.

(chorus):
         F C F C 
Won't  someone dance with me to a waltz about  whiskey
         Am D G 
And turn my sad songs to  lullabies
         C Am F C 
I don't need much of nothin  except for all your lovin'
         G F C 
And a waltz  about whiskey on ice

One quarter should do, number A32
a little truth from the  jukebox should make it alright
and as  the blues sets in I'm getting high  again
to a waltz about whiskey on  ice

(chorus)
         D G Am F 
I remember the night she  sat down beside me, she said love was a  
                         C 
ring that won't end
                         G 
I was handed a  lie
                 Am C F C F G 
Now the only thing I know of a ring  is the circle my glass leaves  
 F C 
behind

(chorus)

Rip It Up chords – Orange Juice V2

 (Intro, one full bar per chord)

 C(add9)  - - -  D6  - - -
 C(add9)  - - -  D6  - - -
 C(add9)  - - -  D6  - - -
 C(add9)  - - -  D6  - - -

 C(add9) 
When I first saw you
           D6 
Something stirred within me
          C(add9) D6 
You were standing sultry in the rain
    C(add9) 
If I could've held you
 D6 
I would've held you
 C(add9) D6 
Rip it up and start again

 C(add9) D6 
Rip it up and start again
 C(add9) D6 
Rip it up and start again
   C G/D 
I hope to God you're not as dumb as you make out
   C 
I hope to God
   G 
I hope to God
       C G/D   
And I hope to God I'm not as numb as you make out
   C 
I hope to God
   G 
I hope to God

(Instrumental section, one full bar per chord)

 C(add9)  - - -  D6  - - -
 C(add9)  - - -  D6  - - -

 C(add9) 
And when I next saw you
    D6 
My heart reached out for you
        C(add9) D6 
But my arms stuck like glue to my sides
    C(add9) 
If I could've held you
 D6 
I would've held you
         C(add9) D6 
But I'd choke rather than swallow my pride

 C(add9) D6 
Rip it up and start again
 C(add9) D6 
Rip it up and start again

   C G/D 
I hope to God you're not as dumb as you make out
   C 
I hope to God
   G 
I hope to God
       C G/D 
And I hope to God I'm not as numb as you make out
   C 
I hope to God
   G 
I hope to God

               C(add9) 
And there was times I'd take my pen
          D6 
And feel obliged to start again
         C(add9)              
I do profess that there are things in life
      D6 
That one can't quite express
 C(add9) D6 
You know me I'm acting dumb-dumb
 C(add9) D6 
You know this scene is very humdrum
 C(add9) D6 
And my favourite song's entitled 'boredom'

(Instrumental with sax solo, one full bar per chord)

 C(add9)  - - -  D6  - - -
 C(add9)  - - -  D6  - - -
 C(add9)  - - -  D6  - - -
 C(add9)  - - -  D6  - - -
 C(add9)  - - -  D6  - - -
 C(add9)  - - -  D6  - - -
 C(add9)  - - -  D6  - - -
 C(add9)  - - -  D6  - - -

 C(add9) D6 
Rip it up and start again
        C(add9) D6 
I said rip it up and start again
        C(add9) D6 
I said rip it up and start again
        C(add9) D6 
I said rip it up and start again
        C(add9) D6 C (add9)               D6 
I said rip it up and rip it up, rip it up and rip it up, rip it up and start again

(fade out)

Orange Marmalade chords – Mellowdrone

 Emaj7 Dbm  
Tell me that you love me lady one more time
 Abm B 
One more time slowly
 Fmaj7 Dbm 
Til then I will float in silence gingerly
 Abm B 
Consuming energy

 Fmaj7 Dbm 
Maybe you could stay, just one more little day
 Abm B 
This time it would be nice if you could fight back
Maybe you could stay, just one more little day
This time it would be nice if you could fight back

Give me one good reason baby why I'd leave
Why I'd leave you here
Til then I will float in silence gingerly
Consuming energy

 E A B7   
Oh... did it again
 E A B7     
Oh... whose gonna clean this up?
 E A B7 Cm 
Please excuse me while I blow into a million pieces

Maybe you could stay, just one more little day
This time it would be nice if you could fight back
Maybe you could stay, just one more little day
This time it would be nice if you could fight back

Time Will Tell chords – Blood Orange

 Song: Time Will Tell
Artist: Blood Orange
 Cupid Deluxe
 Crocky
Lyrics Source - http://rock.rapgenius.com/Blood-orange-time-will-tell-lyrics
(I added some of the missing bits at the end of the song)


Standard Tuning - Eadgbe

Chords
Not 100% on these, the track isn't amazingly clear.
These are broad strokes, suggestions and improvements would be very welcome.

Enjoy :)

 B ,   D ,   F#/Gb ,   Bsus2 ?

e|---|---|-2-|-2-|
b|-4-|-6-|-2-|-2-|
g|-4-|-6-|-3-|-4-|
d|-4-|-6-|-4-|-4-|
a|-2-|-4-|-4-|-2-|
E|---|---|-2-|-2-|

Intro:  B ,   D ,   F# ,   Bsus2   x2

 B D 
  Time will tell if you can figure this and work it out
 F# Bsus2 
  No one's waiting for you anyway so don't be stressed now
 B D 
  Even if it's something that you've had your eye on
 F# Bsus2 
  It is what it is

 B D 
  Time will tell if you can figure this and work it out
 F# Bsus2 
  No one's waiting for you anyway so don't be stressed now
 B D 
  Even if it's something that you've had your eye on
 F# Bsus2 
  It is what it is

 B D F# Bsus2 
Finishing 8 or 9 tell me its the perfect time
 B D F# Bsus2 
Told you I'll be waiting hiding from the rainfall

 B 
Come into my bedroom
 D 
Come into my bedroom
 F Bsus2 
Come into my bedroom


 B 
Come into my bedroom
 D 
Come into my bedroom
 F Bsus2 
Come into my bedroom

Motif x4 - On 4th time, go straight into B after last note.

e|------6-7--6--------6-7--6-4--|
b|--7-9-----------7-9-----------|
g|------------------------------|
d|------------------------------|
a|------------------------------|
E|------------------------------|

 B D 
  Time will tell if you can figure this and work it out
 F# Bsus2 
  No one's waiting for you anyway so don't be stressed now
 B D 
  Even if it's something that you've had your eye on
 F# Bsus2 
  It is what it is

 B D 
 Even if it's all you know just keep your heart in
 F# Bsus2         
 Anyway to keep it up just never let yourself down
 B D 
  Even if it's something that you've had your eye on
 F# Bsus2 
  It is what it is

Alt Motif x4 then with chords
e|------6-7--6-4--------6-7--6--|
b|--7-9-------------7-9---------|
g|------------------------------|
d|------------------------------|
a|------------------------------|
E|------------------------------|
      
 B D F# Bsus2 
Finishing 8 or 9 tell me its the perfect time
 B D F# Bsus2 
Told you I'll be waiting hiding from the rainfall

                        B 
I've wasted moments in bowery light
 D 
Come into my bedroom
 F Bsus2 
Come into my bedroom

              B 
I've kept it open
 D 
Come into my bedroom
 F Bsus2 
Come into my bedroom

 B D F Bsus2  until end

Vincent Cyr – Buddy Orange Tabs

 Buddy Orange

Artist: Vincent Cyr

: TheDarkRane

Difficulty: Intermediate

Tuning: D Standard (DGCFAd)
It can be played in E Standard but I prefer the lower tones of D Standard.
In his first video he played it close to E standard, but I think he was a little out of tune.
In his 2013 version I'm pretty sure he was in D Standard.

To hear the song, go here: http://www.youtube.com/watch?v=ECKi1sogAeU

Part 1

The whole song is played fingerstyle using mostly the thumb and index finger on your 
picking hand.

With your fretting hand you should try to hold most of the notes so that they ring out.

You can try to play it with a pick but the results probably won't be very satisfying.

d|------------------------------------7--7h10p7--|-----------------------------------3--3h5p3--|
A|-----5---5------7--8~-----8---8/10-------------|-----5---5------7--3~-----3---3/5------------|
F|-----------------------------------------------|---------------------------------------------|
C|-----------------------------------------------|---------------------------------------------|
G|-3~----3---3/5--5--7~--7----7------------------|-3~----3---3/5--5--2~--2----2----------------|
D|-----------------------------------------------|---------------------------------------------|



d|-------------------------------------7--7h10p7--|--------------------*12~--|
A|-----5---5------7--7~/8~---8---8/10-------------|-----5---5------7---*12~--|
F|------------------------------------------------|--------------------*12~--|
C|------------------------------------------------|--------------------------|
G|-3~----3---3/5--5--5~/7~-----7------------------|-3~----3---3/5--5---------|
D|------------------------------------------------|--------------------------|

Part 2

This part can be tricky.

You can either choose to wrap your thumb over the top of the neck to fret the low D string,

or you can fret it with your middle finger and use your remaining fingers to fret the 
melody notes.

d|----3----2----2h3p2-----5--2--|----3----2----2h3p2-----5--2--|
A|------------------------------|------------------------------|
F|------------------------------|------------------------------|
C|------------------------------|------------------------------|
G|------------------------------|------------------------------|
D|-3~---3~---3~--------3~-------|-3~---3~---3~--------3~-------|



d|----0----0----7----7---7/12--|---12---12---10----8----8h10p8\--|
A|-----------------------------|---------------------------------|
F|-----------------------------|---------------------------------|
C|-----------------------------|---------------------------------|
G|-----------------------------|---------------------------------|
D|-0~---0~---0~---0~---0~------|-0~---0~---0~---0~---0~----------|



d|----3----2----2h3p2-----5--2--|----3----2----2h3p2-----5--0--|
A|------------------------------|------------------------------|
F|------------------------------|------------------------------|
C|------------------------------|------------------------------|
G|-0~---0~---0~--------0~-------|-0~---0~---0~--------0~-------|
D|------------------------------|------------------------------|



d|---5----5-----7----7----7/8--|---8----8-----12---12---12\------|
A|-----------------------------|---------------------------------|
F|-----------------------------|---------------------------------|
C|-----------------------------|---------------------------------|
G|-3----3----/5----5----5--/7--|-7----7----/9----9----9----------|
D|-----------------------------|---------------------------------|



d|----3----2----2h3p2-----5--2--|----3----2----2h3p2-----5--2--|
A|------------------------------|------------------------------|
F|------------------------------|------------------------------|
C|------------------------------|------------------------------|
G|------------------------------|----------------------------

Youre Not Good Enough Tabs by Blood Orange

 -------------------------------------------------------------------------------
                                  YOU'RE NOT GOOD ENOUGH - Blood Orange
-------------------------------------------------------------------------------
: Lauren Marquez
 lauren.marquez4

Blood Orange: 
http://bloodorangeforever.tumblr.com
http://www.dominorecordco.com/artists/blood-orange/

Tuning: Standard

P.M..............       .................
e|---------------------------------------|
B|----------------5----------------------|
G|------5---5-----5---------5------------|
D|--5/7---7---7-7-5-----2/3---3-----5----|
A|------------------------------3-3---3--|
E|---------------------------------------|

Riff repeats throughout the intro/verses.


Intro solo:
e|--8888--8888--8888-88-8-55-5-55----------5-----------5-------555--|
B|--8888--8888--8888-88-8-55-5-55----------5-----5-----5-----5-555--|
G|--9999--9999--9999-99-9-55-5-55----------------5-----------5-555--|
D|-------------------------------------5h7---5h7---5h7---5h7--------|
A|-------------------------------------5h7---5h7---5h7---5h7--------|
E|------------------------------------------------------------------|


Outro, listen to the rhythm and play around with an Am bar chord, for example:
e|------------------|---------|---------------|---------------|--555--|
B|------------------|---------|--8p5-5-8p5-5--|------5-----5--|--555--|
G|------------------|------5--|---------------|--5h7---5h7----|--555--|
D|--5h7-7-5h7-7-5h7-|--5h7----|---------------|---------------|-------|
A|------------------|---------|---------------|---------------|-------|
E|------------------|---------|---------------|---------------|-------|